  0
SECTION
  2
HEADER
  9
$ACADVER
  1
AC1009
  9
$EXTMIN
 10
0.0
 20
0.0
 30
0.0
  9
$EXTMAX
 10
1000.0
 20
1000.0
 30
0.0
  9
$FILLMODE
 70
 0
  9
$SPLFRAME
 70
 1
  0
ENDSEC
  0
SECTION
  2
TABLES
  0
TABLE
  2
LAYER
 70
   255
  0
LAYER
  2
0
 70
     0
 62
     7
  6
CONTINUOUS
  0
ENDTAB
  0
ENDSEC
  0
SECTION
  2
ENTITIES
  0
POLYLINE
8
0
 62
     0
 66
     1
 10
0
 20
0
 30
0.0
 70
     1
 40
0.5
 41
0.5
  0
VERTEX
  8
0
 10
69.1885
 20
111.925
 30
0.0
 40
0.5
 41
0.5
  0
VERTEX
  8
0
 10
69.5225
 20
113.58
 30
0.0
 40
0.5
 41
0.5
  0
VERTEX
  8
0
 10
70.4336
 20
114.932
 30
0.0
 40
0.5
 41
0.5
  0
VERTEX
  8
0
 10
71.7852
 20
115.843
 30
0.0
 40
0.5
 41
0.5
  0
VERTEX
  8
0
 10
73.4404
 20
116.177
 30
0.0
 40
0.5
 41
0.5
  0
VERTEX
  8
0
 10
75.0955
 20
115.843
 30
0.0
 40
0.5
 41
0.5
  0
VERTEX
  8
0
 10
76.447
 20
114.932
 30
0.0
 40
0.5
 41
0.5
  0
VERTEX
  8
0
 10
77.3582
 20
113.58
 30
0.0
 40
0.5
 41
0.5
  0
VERTEX
  8
0
 10
77.6924
 20
111.925
 30
0.0
 40
0.5
 41
0.5
  0
VERTEX
  8
0
 10
77.3582
 20
110.27
 30
0.0
 40
0.5
 41
0.5
  0
VERTEX
  8
0
 10
76.447
 20
108.919
 30
0.0
 40
0.5
 41
0.5
  0
VERTEX
  8
0
 10
75.0955
 20
108.008
 30
0.0
 40
0.5
 41
0.5
  0
VERTEX
  8
0
 10
73.4404
 20
107.673
 30
0.0
 40
0.5
 41
0.5
  0
VERTEX
  8
0
 10
71.7852
 20
108.008
 30
0.0
 40
0.5
 41
0.5
  0
VERTEX
  8
0
 10
70.4336
 20
108.919
 30
0.0
 40
0.5
 41
0.5
  0
VERTEX
  8
0
 10
69.5225
 20
110.27
 30
0.0
 40
0.5
 41
0.5
  0
VERTEX
  8
0
 10
69.1885
 20
111.925
 30
0.0
 40
0.5
 41
0.5
  0
SEQEND
  8
0
  0
POLYLINE
8
0
 62
     0
 66
     1
 10
0
 20
0
 30
0.0
 70
     1
 40
0.5
 41
0.5
  0
VERTEX
  8
0
 10
69.1885
 20
75.075
 30
0.0
 40
0.5
 41
0.5
  0
VERTEX
  8
0
 10
69.5225
 20
76.73
 30
0.0
 40
0.5
 41
0.5
  0
VERTEX
  8
0
 10
70.4336
 20
78.0815
 30
0.0
 40
0.5
 41
0.5
  0
VERTEX
  8
0
 10
71.7852
 20
78.9929
 30
0.0
 40
0.5
 41
0.5
  0
VERTEX
  8
0
 10
73.4404
 20
79.3269
 30
0.0
 40
0.5
 41
0.5
  0
VERTEX
  8
0
 10
75.0955
 20
78.9929
 30
0.0
 40
0.5
 41
0.5
  0
VERTEX
  8
0
 10
76.447
 20
78.0815
 30
0.0
 40
0.5
 41
0.5
  0
VERTEX
  8
0
 10
77.3582
 20
76.73
 30
0.0
 40
0.5
 41
0.5
  0
VERTEX
  8
0
 10
77.6924
 20
75.075
 30
0.0
 40
0.5
 41
0.5
  0
VERTEX
  8
0
 10
77.3582
 20
73.4199
 30
0.0
 40
0.5
 41
0.5
  0
VERTEX
  8
0
 10
76.447
 20
72.0684
 30
0.0
 40
0.5
 41
0.5
  0
VERTEX
  8
0
 10
75.0955
 20
71.1572
 30
0.0
 40
0.5
 41
0.5
  0
VERTEX
  8
0
 10
73.4404
 20
70.823
 30
0.0
 40
0.5
 41
0.5
  0
VERTEX
  8
0
 10
71.7852
 20
71.1572
 30
0.0
 40
0.5
 41
0.5
  0
VERTEX
  8
0
 10
70.4336
 20
72.0684
 30
0.0
 40
0.5
 41
0.5
  0
VERTEX
  8
0
 10
69.5225
 20
73.4199
 30
0.0
 40
0.5
 41
0.5
  0
VERTEX
  8
0
 10
69.1885
 20
75.075
 30
0.0
 40
0.5
 41
0.5
  0
SEQEND
  8
0
  0
POLYLINE
8
0
 62
     0
 66
     1
 10
0
 20
0
 30
0.0
 70
     1
 40
0.5
 41
0.5
  0
VERTEX
  8
0
 10
352.653
 20
111.925
 30
0.0
 40
0.5
 41
0.5
  0
VERTEX
  8
0
 10
352.987
 20
113.58
 30
0.0
 40
0.5
 41
0.5
  0
VERTEX
  8
0
 10
353.898
 20
114.932
 30
0.0
 40
0.5
 41
0.5
  0
VERTEX
  8
0
 10
355.25
 20
115.843
 30
0.0
 40
0.5
 41
0.5
  0
VERTEX
  8
0
 10
356.905
 20
116.177
 30
0.0
 40
0.5
 41
0.5
  0
VERTEX
  8
0
 10
358.56
 20
115.843
 30
0.0
 40
0.5
 41
0.5
  0
VERTEX
  8
0
 10
359.912
 20
114.932
 30
0.0
 40
0.5
 41
0.5
  0
VERTEX
  8
0
 10
360.823
 20
113.58
 30
0.0
 40
0.5
 41
0.5
  0
VERTEX
  8
0
 10
361.157
 20
111.925
 30
0.0
 40
0.5
 41
0.5
  0
VERTEX
  8
0
 10
360.823
 20
110.27
 30
0.0
 40
0.5
 41
0.5
  0
VERTEX
  8
0
 10
359.912
 20
108.919
 30
0.0
 40
0.5
 41
0.5
  0
VERTEX
  8
0
 10
358.56
 20
108.008
 30
0.0
 40
0.5
 41
0.5
  0
VERTEX
  8
0
 10
356.905
 20
107.673
 30
0.0
 40
0.5
 41
0.5
  0
VERTEX
  8
0
 10
355.25
 20
108.008
 30
0.0
 40
0.5
 41
0.5
  0
VERTEX
  8
0
 10
353.898
 20
108.919
 30
0.0
 40
0.5
 41
0.5
  0
VERTEX
  8
0
 10
352.987
 20
110.27
 30
0.0
 40
0.5
 41
0.5
  0
VERTEX
  8
0
 10
352.653
 20
111.925
 30
0.0
 40
0.5
 41
0.5
  0
SEQEND
  8
0
  0
POLYLINE
8
0
 62
     0
 66
     1
 10
0
 20
0
 30
0.0
 70
     1
 40
0.5
 41
0.5
  0
VERTEX
  8
0
 10
352.653
 20
75.075
 30
0.0
 40
0.5
 41
0.5
  0
VERTEX
  8
0
 10
352.987
 20
76.73
 30
0.0
 40
0.5
 41
0.5
  0
VERTEX
  8
0
 10
353.898
 20
78.0815
 30
0.0
 40
0.5
 41
0.5
  0
VERTEX
  8
0
 10
355.25
 20
78.9929
 30
0.0
 40
0.5
 41
0.5
  0
VERTEX
  8
0
 10
356.905
 20
79.3269
 30
0.0
 40
0.5
 41
0.5
  0
VERTEX
  8
0
 10
358.56
 20
78.9929
 30
0.0
 40
0.5
 41
0.5
  0
VERTEX
  8
0
 10
359.912
 20
78.0815
 30
0.0
 40
0.5
 41
0.5
  0
VERTEX
  8
0
 10
360.823
 20
76.73
 30
0.0
 40
0.5
 41
0.5
  0
VERTEX
  8
0
 10
361.157
 20
75.075
 30
0.0
 40
0.5
 41
0.5
  0
VERTEX
  8
0
 10
360.823
 20
73.4199
 30
0.0
 40
0.5
 41
0.5
  0
VERTEX
  8
0
 10
359.912
 20
72.0684
 30
0.0
 40
0.5
 41
0.5
  0
VERTEX
  8
0
 10
358.56
 20
71.1572
 30
0.0
 40
0.5
 41
0.5
  0
VERTEX
  8
0
 10
356.905
 20
70.823
 30
0.0
 40
0.5
 41
0.5
  0
VERTEX
  8
0
 10
355.25
 20
71.1572
 30
0.0
 40
0.5
 41
0.5
  0
VERTEX
  8
0
 10
353.898
 20
72.0684
 30
0.0
 40
0.5
 41
0.5
  0
VERTEX
  8
0
 10
352.987
 20
73.4199
 30
0.0
 40
0.5
 41
0.5
  0
VERTEX
  8
0
 10
352.653
 20
75.075
 30
0.0
 40
0.5
 41
0.5
  0
SEQEND
  8
0
  0
POLYLINE
8
0
 62
     0
 66
     1
 10
0
 20
0
 30
0.0
 70
     1
 40
0.5
 41
0.5
  0
VERTEX
  8
0
 10
310.844
 20
82.8701
 30
0.0
 40
0.5
 41
0.5
  0
VERTEX
  8
0
 10
311.734
 20
87.2837
 30
0.0
 40
0.5
 41
0.5
  0
VERTEX
  8
0
 10
314.164
 20
90.8879
 30
0.0
 40
0.5
 41
0.5
  0
VERTEX
  8
0
 10
317.769
 20
93.3179
 30
0.0
 40
0.5
 41
0.5
  0
VERTEX
  8
0
 10
322.182
 20
94.2087
 30
0.0
 40
0.5
 41
0.5
  0
VERTEX
  8
0
 10
326.595
 20
93.3179
 30
0.0
 40
0.5
 41
0.5
  0
VERTEX
  8
0
 10
330.2
 20
90.8879
 30
0.0
 40
0.5
 41
0.5
  0
VERTEX
  8
0
 10
332.63
 20
87.2837
 30
0.0
 40
0.5
 41
0.5
  0
VERTEX
  8
0
 10
333.521
 20
82.8701
 30
0.0
 40
0.5
 41
0.5
  0
VERTEX
  8
0
 10
332.63
 20
78.4568
 30
0.0
 40
0.5
 41
0.5
  0
VERTEX
  8
0
 10
330.2
 20
74.8525
 30
0.0
 40
0.5
 41
0.5
  0
VERTEX
  8
0
 10
326.595
 20
72.4226
 30
0.0
 40
0.5
 41
0.5
  0
VERTEX
  8
0
 10
322.182
 20
71.5315
 30
0.0
 40
0.5
 41
0.5
  0
VERTEX
  8
0
 10
317.769
 20
72.4226
 30
0.0
 40
0.5
 41
0.5
  0
VERTEX
  8
0
 10
314.164
 20
74.8525
 30
0.0
 40
0.5
 41
0.5
  0
VERTEX
  8
0
 10
311.734
 20
78.4568
 30
0.0
 40
0.5
 41
0.5
  0
VERTEX
  8
0
 10
310.844
 20
82.8701
 30
0.0
 40
0.5
 41
0.5
  0
SEQEND
  8
0
  0
POLYLINE
8
0
 62
     0
 66
     1
 10
0
 20
0
 30
0.0
 70
     1
 40
0.5
 41
0.5
  0
VERTEX
  8
0
 10
93.7808
 20
74.3662
 30
0.0
 40
0.5
 41
0.5
  0
VERTEX
  8
0
 10
94.2581
 20
75.5188
 30
0.0
 40
0.5
 41
0.5
  0
VERTEX
  8
0
 10
95.4106
 20
75.9961
 30
0.0
 40
0.5
 41
0.5
  0
VERTEX
  8
0
 10
96.563
 20
75.5188
 30
0.0
 40
0.5
 41
0.5
  0
VERTEX
  8
0
 10
97.0405
 20
74.3662
 30
0.0
 40
0.5
 41
0.5
  0
VERTEX
  8
0
 10
96.563
 20
73.2136
 30
0.0
 40
0.5
 41
0.5
  0
VERTEX
  8
0
 10
95.4106
 20
72.7363
 30
0.0
 40
0.5
 41
0.5
  0
VERTEX
  8
0
 10
94.2581
 20
73.2136
 30
0.0
 40
0.5
 41
0.5
  0
VERTEX
  8
0
 10
93.7808
 20
74.3662
 30
0.0
 40
0.5
 41
0.5
  0
SEQEND
  8
0
  0
POLYLINE
8
0
 62
     0
 66
     1
 10
0
 20
0
 30
0.0
 70
     1
 40
0.5
 41
0.5
  0
VERTEX
  8
0
 10
62.8105
 20
124.68
 30
0.0
 40
0.5
 41
0.5
  0
VERTEX
  8
0
 10
64.2278
 20
124.68
 30
0.0
 40
0.5
 41
0.5
  0
VERTEX
  8
0
 10
64.2278
 20
62.3176
 30
0.0
 40
0.5
 41
0.5
  0
VERTEX
  8
0
 10
62.8105
 20
62.3176
 30
0.0
 40
0.5
 41
0.5
  0
VERTEX
  8
0
 10
62.8105
 20
124.68
 30
0.0
 40
0.5
 41
0.5
  0
SEQEND
  8
0
  0
POLYLINE
8
0
 62
     0
 66
     1
 10
0
 20
0
 30
0.0
 70
     1
 40
0.5
 41
0.5
  0
VERTEX
  8
0
 10
366.118
 20
124.682
 30
0.0
 40
0.5
 41
0.5
  0
VERTEX
  8
0
 10
367.535
 20
124.682
 30
0.0
 40
0.5
 41
0.5
  0
VERTEX
  8
0
 10
367.535
 20
62.3201
 30
0.0
 40
0.5
 41
0.5
  0
VERTEX
  8
0
 10
366.118
 20
62.3201
 30
0.0
 40
0.5
 41
0.5
  0
VERTEX
  8
0
 10
366.118
 20
124.682
 30
0.0
 40
0.5
 41
0.5
  0
SEQEND
  8
0
  0
POLYLINE
8
0
 62
     0
 66
     1
 10
0
 20
0
 30
0.0
 40
0.5
 41
0.5
  0
VERTEX
  8
0
 10
84.0703
 20
110.292
 30
0.0
 40
0.5
 41
0.5
  0
VERTEX
  8
0
 10
346.28
 20
110.292
 30
0.0
 40
0.5
 41
0.5
  0
SEQEND
  8
0
  0
POLYLINE
8
0
 62
     0
 66
     1
 10
0
 20
0
 30
0.0
 70
     1
 40
0.5
 41
0.5
  0
VERTEX
  8
0
 10
85.4854
 20
115.531
 30
0.0
 40
0.5
 41
0.5
  0
VERTEX
  8
0
 10
86.1455
 20
115.264
 30
0.0
 40
0.5
 41
0.5
  0
VERTEX
  8
0
 10
86.4753
 20
114.751
 30
0.0
 40
0.5
 41
0.5
  0
VERTEX
  8
0
 10
86.5005
 20
114.624
 30
0.0
 40
0.5
 41
0.5
  0
VERTEX
  8
0
 10
86.5103
 20
114.501
 30
0.0
 40
0.5
 41
0.5
  0
VERTEX
  8
0
 10
86.2302
 20
113.731
 30
0.0
 40
0.5
 41
0.5
  0
VERTEX
  8
0
 10
85.5654
 20
113.402
 30
0.0
 40
0.5
 41
0.5
  0
VERTEX
  8
0
 10
86.7854
 20
111.792
 30
0.0
 40
0.5
 41
0.5
  0
VERTEX
  8
0
 10
86.1953
 20
111.792
 30
0.0
 40
0.5
 41
0.5
  0
VERTEX
  8
0
 10
85.0955
 20
113.366
 30
0.0
 40
0.5
 41
0.5
  0
VERTEX
  8
0
 10
84.8955
 20
113.366
 30
0.0
 40
0.5
 41
0.5
  0
VERTEX
  8
0
 10
84.8955
 20
111.792
 30
0.0
 40
0.5
 41
0.5
  0
VERTEX
  8
0
 10
84.4253
 20
111.792
 30
0.0
 40
0.5
 41
0.5
  0
VERTEX
  8
0
 10
84.4253
 20
115.531
 30
0.0
 40
0.5
 41
0.5
  0
VERTEX
  8
0
 10
85.4854
 20
115.531
 30
0.0
 40
0.5
 41
0.5
  0
SEQEND
  8
0
  0
POLYLINE
8
0
 62
     0
 66
     1
 10
0
 20
0
 30
0.0
 70
     1
 40
0.5
 41
0.5
  0
VERTEX
  8
0
 10
84.8955
 20
115.096
 30
0.0
 40
0.5
 41
0.5
  0
VERTEX
  8
0
 10
84.8955
 20
113.721
 30
0.0
 40
0.5
 41
0.5
  0
VERTEX
  8
0
 10
85.7378
 20
113.849
 30
0.0
 40
0.5
 41
0.5
  0
VERTEX
  8
0
 10
86.0454
 20
114.356
 30
0.0
 40
0.5
 41
0.5
  0
VERTEX
  8
0
 10
86.0454
 20
114.374
 30
0.0
 40
0.5
 41
0.5
  0
VERTEX
  8
0
 10
86.0454
 20
114.392
 30
0.0
 40
0.5
 41
0.5
  0
VERTEX
  8
0
 10
86.0403
 20
114.409
 30
0.0
 40
0.5
 41
0.5
  0
VERTEX
  8
0
 10
86.0403
 20
114.427
 30
0.0
 40
0.5
 41
0.5
  0
VERTEX
  8
0
 10
86.0403
 20
114.434
 30
0.0
 40
0.5
 41
0.5
  0
VERTEX
  8
0
 10
86.0403
 20
114.442
 30
0.0
 40
0.5
 41
0.5
  0
VERTEX
  8
0
 10
85.8279
 20
114.889
 30
0.0
 40
0.5
 41
0.5
  0
VERTEX
  8
0
 10
85.0403
 20
115.096
 30
0.0
 40
0.5
 41
0.5
  0
VERTEX
  8
0
 10
85.0029
 20
115.096
 30
0.0
 40
0.5
 41
0.5
  0
VERTEX
  8
0
 10
84.9705
 20
115.096
 30
0.0
 40
0.5
 41
0.5
  0
VERTEX
  8
0
 10
84.9329
 20
115.092
 30
0.0
 40
0.5
 41
0.5
  0
VERTEX
  8
0
 10
84.8955
 20
115.092
 30
0.0
 40
0.5
 41
0.5
  0
VERTEX
  8
0
 10
84.8955
 20
115.096
 30
0.0
 40
0.5
 41
0.5
  0
SEQEND
  8
0
  0
POLYLINE
8
0
 62
     0
 66
     1
 10
0
 20
0
 30
0.0
 70
     1
 40
0.5
 41
0.5
  0
VERTEX
  8
0
 10
88.7556
 20
112.577
 30
0.0
 40
0.5
 41
0.5
  0
VERTEX
  8
0
 10
89.1458
 20
112.382
 30
0.0
 40
0.5
 41
0.5
  0
VERTEX
  8
0
 10
89.0881
 20
112.277
 30
0.0
 40
0.5
 41
0.5
  0
VERTEX
  8
0
 10
89.0208
 20
112.172
 30
0.0
 40
0.5
 41
0.5
  0
VERTEX
  8
0
 10
88.6758
 20
111.854
 30
0.0
 40
0.5
 41
0.5
  0
VERTEX
  8
0
 10
88.0457
 20
111.711
 30
0.0
 40
0.5
 41
0.5
  0
VERTEX
  8
0
 10
87.2783
 20
112.067
 30
0.0
 40
0.5
 41
0.5
  0
VERTEX
  8
0
 10
86.9458
 20
112.852
 30
0.0
 40
0.5
 41
0.5
  0
VERTEX
  8
0
 10
86.9431
 20
112.912
 30
0.0
 40
0.5
 41
0.5
  0
VERTEX
  8
0
 10
86.9407
 20
112.971
 30
0.0
 40
0.5
 41
0.5
  0
VERTEX
  8
0
 10
86.9407
 20
113.009
 30
0.0
 40
0.5
 41
0.5
  0
VERTEX
  8
0
 10
86.9407
 20
113.047
 30
0.0
 40
0.5
 41
0.5
  0
VERTEX
  8
0
 10
87.2483
 20
113.894
 30
0.0
 40
0.5
 41
0.5
  0
VERTEX
  8
0
 10
88.0857
 20
114.267
 30
0.0
 40
0.5
 41
0.5
  0
VERTEX
  8
0
 10
88.8132
 20
113.994
 30
0.0
 40
0.5
 41
0.5
  0
VERTEX
  8
0
 10
89.1406
 20
113.396
 30
0.0
 40
0.5
 41
0.5
  0
VERTEX
  8
0
 10
89.1782
 20
113.194
 30
0.0
 40
0.5
 41
0.5
  0
VERTEX
  8
0
 10
89.1907
 20
113.001
 30
0.0
 40
0.5
 41
0.5
  0
VERTEX
  8
0
 10
89.1907
 20
112.942
 30
0.0
 40
0.5
 41
0.5
  0
VERTEX
  8
0
 10
89.1858
 20
112.886
 30
0.0
 40
0.5
 41
0.5
  0
VERTEX
  8
0
 10
87.4158
 20
112.892
 30
0.0
 40
0.5
 41
0.5
  0
VERTEX
  8
0
 10
87.6233
 20
112.354
 30
0.0
 40
0.5
 41
0.5
  0
VERTEX
  8
0
 10
88.1257
 20
112.142
 30
0.0
 40
0.5
 41
0.5
  0
VERTEX
  8
0
 10
88.1982
 20
112.146
 30
0.0
 40
0.5
 41
0.5
  0
VERTEX
  8
0
 10
88.2756
 20
112.162
 30
0.0
 40
0.5
 41
0.5
  0
VERTEX
  8
0
 10
88.5532
 20
112.302
 30
0.0
 40
0.5
 41
0.5
  0
VERTEX
  8
0
 10
88.7556
 20
112.572
 30
0.0
 40
0.5
 41
0.5
  0
VERTEX
  8
0
 10
88.7556
 20
112.577
 30
0.0
 40
0.5
 41
0.5
  0
SEQEND
  8
0
  0
POLYLINE
8
0
 62
     0
 66
     1
 10
0
 20
0
 30
0.0
 70
     1
 40
0.5
 41
0.5
  0
VERTEX
  8
0
 10
88.7158
 20
113.247
 30
0.0
 40
0.5
 41
0.5
  0
VERTEX
  8
0
 10
88.5183
 20
113.689
 30
0.0
 40
0.5
 41
0.5
  0
VERTEX
  8
0
 10
88.0857
 20
113.872
 30
0.0
 40
0.5
 41
0.5
  0
VERTEX
  8
0
 10
87.9707
 20
113.859
 30
0.0
 40
0.5
 41
0.5
  0
VERTEX
  8
0
 10
87.8506
 20
113.822
 30
0.0
 40
0.5
 41
0.5
  0
VERTEX
  8
0
 10
87.5808
 20
113.629
 30
0.0
 40
0.5
 41
0.5
  0
VERTEX
  8
0
 10
87.4158
 20
113.241
 30
0.0
 40
0.5
 41
0.5
  0
VERTEX
  8
0
 10
88.7158
 20
113.247
 30
0.0
 40
0.5
 41
0.5
  0
SEQEND
  8
0
  0
POLYLINE
8
0
 62
     0
 66
     1
 10
0
 20
0
 30
0.0
 70
     1
 40
0.5
 41
0.5
  0
VERTEX
  8
0
 10
89.937
 20
113.876
 30
0.0
 40
0.5
 41
0.5
  0
VERTEX
  8
0
 10
89.9768
 20
113.942
 30
0.0
 40
0.5
 41
0.5
  0
VERTEX
  8
0
 10
90.0569
 20
114.037
 30
0.0
 40
0.5
 41
0.5
  0
VERTEX
  8
0
 10
90.2544
 20
114.167
 30
0.0
 40
0.5
 41
0.5
  0
VERTEX
  8
0
 10
90.5669
 20
114.227
 30
0.0
 40
0.5
 41
0.5
  0
VERTEX
  8
0
 10
90.6594
 20
114.221
 30
0.0
 40
0.5
 41
0.5
  0
VERTEX
  8
0
 10
90.752
 20
114.207
 30
0.0
 40
0.5
 41
0.5
  0
VERTEX
  8
0
 10
91.0193
 20
114.084
 30
0.0
 40
0.5
 41
0.5
  0
VERTEX
  8
0
 10
91.2368
 20
113.797
 30
0.0
 40
0.5
 41
0.5
  0
VERTEX
  8
0
 10
91.2793
 20
113.859
 30
0.0
 40
0.5
 41
0.5
  0
VERTEX
  8
0
 10
91.3269
 20
113.922
 30
0.0
 40
0.5
 41
0.5
  0
VERTEX
  8
0
 10
91.5869
 20
114.132
 30
0.0
 40
0.5
 41
0.5
  0
VERTEX
  8
0
 10
91.9719
 20
114.231
 30
0.0
 40
0.5
 41
0.5
  0
VERTEX
  8
0
 10
92.0193
 20
114.231
 30
0.0
 40
0.5
 41
0.5
  0
VERTEX
  8
0
 10
92.062
 20
114.227
 30
0.0
 40
0.5
 41
0.5
  0
VERTEX
  8
0
 10
92.6045
 20
113.906
 30
0.0
 40
0.5
 41
0.5
  0
VERTEX
  8
0
 10
92.7319
 20
113.202
 30
0.0
 40
0.5
 41
0.5
  0
VERTEX
  8
0
 10
92.7319
 20
111.792
 30
0.0
 40
0.5
 41
0.5
  0
VERTEX
  8
0
 10
92.2969
 20
111.792
 30
0.0
 40
0.5
 41
0.5
  0
VERTEX
  8
0
 10
92.2969
 20
113.207
 30
0.0
 40
0.5
 41
0.5
  0
VERTEX
  8
0
 10
92.1995
 20
113.632
 30
0.0
 40
0.5
 41
0.5
  0
VERTEX
  8
0
 10
91.8669
 20
113.797
 30
0.0
 40
0.5
 41
0.5
  0
VERTEX
  8
0
 10
91.4919
 20
113.659
 30
0.0
 40
0.5
 41
0.5
  0
VERTEX
  8
0
 10
91.3518
 20
113.167
 30
0.0
 40
0.5
 41
0.5
  0
VERTEX
  8
0
 10
91.3518
 20
111.792
 30
0.0
 40
0.5
 41
0.5
  0
VERTEX
  8
0
 10
90.8818
 20
111.792
 30
0.0
 40
0.5
 41
0.5
  0
VERTEX
  8
0
 10
90.8818
 20
113.287
 30
0.0
 40
0.5
 41
0.5
  0
VERTEX
  8
0
 10
90.7744
 20
113.646
 30
0.0
 40
0.5
 41
0.5
  0
VERTEX
  8
0
 10
90.542
 20
113.787
 30
0.0
 40
0.5
 41
0.5
  0
VERTEX
  8
0
 10
90.4944
 20
113.794
 30
0.0
 40
0.5
 41
0.5
  0
VERTEX
  8
0
 10
90.447
 20
113.797
 30
0.0
 40
0.5
 41
0.5
  0
VERTEX
  8
0
 10
90.4019
 20
113.797
 30
0.0
 40
0.5
 41
0.5
  0
VERTEX
  8
0
 10
90.3569
 20
113.792
 30
0.0
 40
0.5
 41
0.5
  0
VERTEX
  8
0
 10
90.0669
 20
113.656
 30
0.0
 40
0.5
 41
0.5
  0
VERTEX
  8
0
 10
89.937
 20
113.202
 30
0.0
 40
0.5
 41
0.5
  0
VERTEX
  8
0
 10
89.937
 20
111.792
 30
0.0
 40
0.5
 41
0.5
  0
VERTEX
  8
0
 10
89.4619
 20
111.792
 30
0.0
 40
0.5
 41
0.5
  0
VERTEX
  8
0
 10
89.4619
 20
114.116
 30
0.0
 40
0.5
 41
0.5
  0
VERTEX
  8
0
 10
89.937
 20
114.116
 30
0.0
 40
0.5
 41
0.5
  0
VERTEX
  8
0
 10
89.937
 20
113.876
 30
0.0
 40
0.5
 41
0.5
  0
SEQEND
  8
0
  0
POLYLINE
8
0
 62
     0
 66
     1
 10
0
 20
0
 30
0.0
 70
     1
 40
0.5
 41
0.5
  0
VERTEX
  8
0
 10
93.1589
 20
113.011
 30
0.0
 40
0.5
 41
0.5
  0
VERTEX
  8
0
 10
93.1614
 20
113.099
 30
0.0
 40
0.5
 41
0.5
  0
VERTEX
  8
0
 10
93.1738
 20
113.197
 30
0.0
 40
0.5
 41
0.5
  0
VERTEX
  8
0
 10
93.5364
 20
113.876
 30
0.0
 40
0.5
 41
0.5
  0
VERTEX
  8
0
 10
94.4189
 20
114.187
 30
0.0
 40
0.5
 41
0.5
  0
VERTEX
  8
0
 10
94.6313
 20
114.172
 30
0.0
 40
0.5
 41
0.5
  0
VERTEX
  8
0
 10
94.864
 20
114.122
 30
0.0
 40
0.5
 41
0.5
  0
VERTEX
  8
0
 10
95.4089
 20
113.792
 30
0.0
 40
0.5
 41
0.5
  0
VERTEX
  8
0
 10
95.679
 20
113.086
 30
0.0
 40
0.5
 41
0.5
  0
VERTEX
  8
0
 10
95.679
 20
113.072
 30
0.0
 40
0.5
 41
0.5
  0
VERTEX
  8
0
 10
95.679
 20
113.057
 30
0.0
 40
0.5
 41
0.5
  0
VERTEX
  8
0
 10
95.679
 20
113.039
 30
0.0
 40
0.5
 41
0.5
  0
VERTEX
  8
0
 10
95.679
 20
113.021
 30
0.0
 40
0.5
 41
0.5
  0
VERTEX
  8
0
 10
95.6714
 20
112.896
 30
0.0
 40
0.5
 41
0.5
  0
VERTEX
  8
0
 10
95.6538
 20
112.771
 30
0.0
 40
0.5
 41
0.5
  0
VERTEX
  8
0
 10
95.2639
 20
112.069
 30
0.0
 40
0.5
 41
0.5
  0
VERTEX
  8
0
 10
94.4189
 20
111.751
 30
0.0
 40
0.5
 41
0.5
  0
VERTEX
  8
0
 10
93.5889
 20
111.987
 30
0.0
 40
0.5
 41
0.5
  0
VERTEX
  8
0
 10
93.2339
 20
112.507
 30
0.0
 40
0.5
 41
0.5
  0
VERTEX
  8
0
 10
93.1738
 20
112.771
 30
0.0
 40
0.5
 41
0.5
  0
VERTEX
  8
0
 10
93.1589
 20
113.007
 30
0.0
 40
0.5
 41
0.5
  0
VERTEX
  8
0
 10
93.1589
 20
113.011
 30
0.0
 40
0.5
 41
0.5
  0
SEQEND
  8
0
  0
POLYLINE
8
0
 62
     0
 66
     1
 10
0
 20
0
 30
0.0
 70
     1
 40
0.5
 41
0.5
  0
VERTEX
  8
0
 10
95.2039
 20
113.052
 30
0.0
 40
0.5
 41
0.5
  0
VERTEX
  8
0
 10
95.1838
 20
113.146
 30
0.0
 40
0.5
 41
0.5
  0
VERTEX
  8
0
 10
95.084
 20
113.402
 30
0.0
 40
0.5
 41
0.5
  0
VERTEX
  8
0
 10
94.8464
 20
113.646
 30
0.0
 40
0.5
 41
0.5
  0
VERTEX
  8
0
 10
94.4189
 20
113.757
 30
0.0
 40
0.5
 41
0.5
  0
VERTEX
  8
0
 10
93.8015
 20
113.509
 30
0.0
 40
0.5
 41
0.5
  0
VERTEX
  8
0
 10
93.6289
 20
112.967
 30
0.0
 40
0.5
 41
0.5
  0
VERTEX
  8
0
 10
93.8464
 20
112.442
 30
0.0
 40
0.5
 41
0.5
  0
VERTEX
  8
0
 10
94.2639
 20
112.207
 30
0.0
 40
0.5
 41
0.5
  0
VERTEX
  8
0
 10
94.3589
 20
112.187
 30
0.0
 40
0.5
 41
0.5
  0
VERTEX
  8
0
 10
94.4539
 20
112.182
 30
0.0
 40
0.5
 41
0.5
  0
VERTEX
  8
0
 10
94.9663
 20
112.402
 30
0.0
 40
0.5
 41
0.5
  0
VERTEX
  8
0
 10
95.2039
 20
112.886
 30
0.0
 40
0.5
 41
0.5
  0
VERTEX
  8
0
 10
95.2063
 20
112.934
 30
0.0
 40
0.5
 41
0.5
  0
VERTEX
  8
0
 10
95.209
 20
112.977
 30
0.0
 40
0.5
 41
0.5
  0
VERTEX
  8
0
 10
95.209
 20
112.994
 30
0.0
 40
0.5
 41
0.5
  0
VERTEX
  8
0
 10
95.209
 20
113.011
 30
0.0
 40
0.5
 41
0.5
  0
VERTEX
  8
0
 10
95.2039
 20
113.029
 30
0.0
 40
0.5
 41
0.5
  0
VERTEX
  8
0
 10
95.2039
 20
113.047
 30
0.0
 40
0.5
 41
0.5
  0
VERTEX
  8
0
 10
95.2039
 20
113.052
 30
0.0
 40
0.5
 41
0.5
  0
SEQEND
  8
0
  0
POLYLINE
8
0
 62
     0
 66
     1
 10
0
 20
0
 30
0.0
 70
     1
 40
0.5
 41
0.5
  0
VERTEX
  8
0
 10
96.1492
 20
114.981
 30
0.0
 40
0.5
 41
0.5
  0
VERTEX
  8
0
 10
96.5791
 20
114.981
 30
0.0
 40
0.5
 41
0.5
  0
VERTEX
  8
0
 10
96.5791
 20
114.116
 30
0.0
 40
0.5
 41
0.5
  0
VERTEX
  8
0
 10
97.0542
 20
114.116
 30
0.0
 40
0.5
 41
0.5
  0
VERTEX
  8
0
 10
97.0542
 20
113.682
 30
0.0
 40
0.5
 41
0.5
  0
VERTEX
  8
0
 10
96.5791
 20
113.682
 30
0.0
 40
0.5
 41
0.5
  0
VERTEX
  8
0
 10
96.5791
 20
111.792
 30
0.0
 40
0.5
 41
0.5
  0
VERTEX
  8
0
 10
96.1492
 20
111.792
 30
0.0
 40
0.5
 41
0.5
  0
VERTEX
  8
0
 10
96.1492
 20
113.682
 30
0.0
 40
0.5
 41
0.5
  0
VERTEX
  8
0
 10
95.8743
 20
113.682
 30
0.0
 40
0.5
 41
0.5
  0
VERTEX
  8
0
 10
95.8743
 20
114.116
 30
0.0
 40
0.5
 41
0.5
  0
VERTEX
  8
0
 10
96.1492
 20
114.116
 30
0.0
 40
0.5
 41
0.5
  0
VERTEX
  8
0
 10
96.1492
 20
114.981
 30
0.0
 40
0.5
 41
0.5
  0
SEQEND
  8
0
  0
POLYLINE
8
0
 62
     0
 66
     1
 10
0
 20
0
 30
0.0
 70
     1
 40
0.5
 41
0.5
  0
VERTEX
  8
0
 10
98.8992
 20
112.577
 30
0.0
 40
0.5
 41
0.5
  0
VERTEX
  8
0
 10
99.2893
 20
112.382
 30
0.0
 40
0.5
 41
0.5
  0
VERTEX
  8
0
 10
99.2317
 20
112.277
 30
0.0
 40
0.5
 41
0.5
  0
VERTEX
  8
0
 10
99.1643
 20
112.172
 30
0.0
 40
0.5
 41
0.5
  0
VERTEX
  8
0
 10
98.8191
 20
111.854
 30
0.0
 40
0.5
 41
0.5
  0
VERTEX
  8
0
 10
98.1892
 20
111.711
 30
0.0
 40
0.5
 41
0.5
  0
VERTEX
  8
0
 10
97.4216
 20
112.067
 30
0.0
 40
0.5
 41
0.5
  0
VERTEX
  8
0
 10
97.0891
 20
112.852
 30
0.0
 40
0.5
 41
0.5
  0
VERTEX
  8
0
 10
97.0867
 20
112.912
 30
0.0
 40
0.5
 41
0.5
  0
VERTEX
  8
0
 10
97.0842
 20
112.971
 30
0.0
 40
0.5
 41
0.5
  0
VERTEX
  8
0
 10
97.0842
 20
113.009
 30
0.0
 40
0.5
 41
0.5
  0
VERTEX
  8
0
 10
97.0842
 20
113.047
 30
0.0
 40
0.5
 41
0.5
  0
VERTEX
  8
0
 10
97.3916
 20
113.894
 30
0.0
 40
0.5
 41
0.5
  0
VERTEX
  8
0
 10
98.2292
 20
114.267
 30
0.0
 40
0.5
 41
0.5
  0
VERTEX
  8
0
 10
98.9568
 20
113.994
 30
0.0
 40
0.5
 41
0.5
  0
VERTEX
  8
0
 10
99.2842
 20
113.396
 30
0.0
 40
0.5
 41
0.5
  0
VERTEX
  8
0
 10
99.3218
 20
113.194
 30
0.0
 40
0.5
 41
0.5
  0
VERTEX
  8
0
 10
99.3342
 20
113.001
 30
0.0
 40
0.5
 41
0.5
  0
VERTEX
  8
0
 10
99.3342
 20
112.942
 30
0.0
 40
0.5
 41
0.5
  0
VERTEX
  8
0
 10
99.3291
 20
112.886
 30
0.0
 40
0.5
 41
0.5
  0
VERTEX
  8
0
 10
97.5591
 20
112.892
 30
0.0
 40
0.5
 41
0.5
  0
VERTEX
  8
0
 10
97.7666
 20
112.354
 30
0.0
 40
0.5
 41
0.5
  0
VERTEX
  8
0
 10
98.2693
 20
112.142
 30
0.0
 40
0.5
 41
0.5
  0
VERTEX
  8
0
 10
98.3418
 20
112.146
 30
0.0
 40
0.5
 41
0.5
  0
VERTEX
  8
0
 10
98.4192
 20
112.162
 30
0.0
 40
0.5
 41
0.5
  0
VERTEX
  8
0
 10
98.6968
 20
112.302
 30
0.0
 40
0.5
 41
0.5
  0
VERTEX
  8
0
 10
98.8992
 20
112.572
 30
0.0
 40
0.5
 41
0.5
  0
VERTEX
  8
0
 10
98.8992
 20
112.577
 30
0.0
 40
0.5
 41
0.5
  0
SEQEND
  8
0
  0
POLYLINE
8
0
 62
     0
 66
     1
 10
0
 20
0
 30
0.0
 70
     1
 40
0.5
 41
0.5
  0
VERTEX
  8
0
 10
98.8591
 20
113.247
 30
0.0
 40
0.5
 41
0.5
  0
VERTEX
  8
0
 10
98.6616
 20
113.689
 30
0.0
 40
0.5
 41
0.5
  0
VERTEX
  8
0
 10
98.2292
 20
113.872
 30
0.0
 40
0.5
 41
0.5
  0
VERTEX
  8
0
 10
98.1143
 20
113.859
 30
0.0
 40
0.5
 41
0.5
  0
VERTEX
  8
0
 10
97.9941
 20
113.822
 30
0.0
 40
0.5
 41
0.5
  0
VERTEX
  8
0
 10
97.7241
 20
113.629
 30
0.0
 40
0.5
 41
0.5
  0
VERTEX
  8
0
 10
97.5591
 20
113.241
 30
0.0
 40
0.5
 41
0.5
  0
VERTEX
  8
0
 10
98.8591
 20
113.247
 30
0.0
 40
0.5
 41
0.5
  0
SEQEND
  8
0
  0
POLYLINE
8
0
 62
     0
 66
     1
 10
0
 20
0
 30
0.0
 70
     1
 40
0.5
 41
0.5
  0
VERTEX
  8
0
 10
103.104
 20
114.116
 30
0.0
 40
0.5
 41
0.5
  0
VERTEX
  8
0
 10
101.919
 20
111.711
 30
0.0
 40
0.5
 41
0.5
  0
VERTEX
  8
0
 10
100.74
 20
114.116
 30
0.0
 40
0.5
 41
0.5
  0
VERTEX
  8
0
 10
101.254
 20
114.116
 30
0.0
 40
0.5
 41
0.5
  0
VERTEX
  8
0
 10
101.919
 20
112.656
 30
0.0
 40
0.5
 41
0.5
  0
VERTEX
  8
0
 10
102.589
 20
114.116
 30
0.0
 40
0.5
 41
0.5
  0
VERTEX
  8
0
 10
103.104
 20
114.116
 30
0.0
 40
0.5
 41
0.5
  0
SEQEND
  8
0
  0
POLYLINE
8
0
 62
     0
 66
     1
 10
0
 20
0
 30
0.0
 70
     1
 40
0.5
 41
0.5
  0
VERTEX
  8
0
 10
103.185
 20
113.011
 30
0.0
 40
0.5
 41
0.5
  0
VERTEX
  8
0
 10
103.187
 20
113.099
 30
0.0
 40
0.5
 41
0.5
  0
VERTEX
  8
0
 10
103.2
 20
113.197
 30
0.0
 40
0.5
 41
0.5
  0
VERTEX
  8
0
 10
103.562
 20
113.876
 30
0.0
 40
0.5
 41
0.5
  0
VERTEX
  8
0
 10
104.445
 20
114.187
 30
0.0
 40
0.5
 41
0.5
  0
VERTEX
  8
0
 10
104.657
 20
114.172
 30
0.0
 40
0.5
 41
0.5
  0
VERTEX
  8
0
 10
104.89
 20
114.122
 30
0.0
 40
0.5
 41
0.5
  0
VERTEX
  8
0
 10
105.435
 20
113.792
 30
0.0
 40
0.5
 41
0.5
  0
VERTEX
  8
0
 10
105.705
 20
113.086
 30
0.0
 40
0.5
 41
0.5
  0
VERTEX
  8
0
 10
105.705
 20
113.072
 30
0.0
 40
0.5
 41
0.5
  0
VERTEX
  8
0
 10
105.705
 20
113.057
 30
0.0
 40
0.5
 41
0.5
  0
VERTEX
  8
0
 10
105.705
 20
113.039
 30
0.0
 40
0.5
 41
0.5
  0
VERTEX
  8
0
 10
105.705
 20
113.021
 30
0.0
 40
0.5
 41
0.5
  0
VERTEX
  8
0
 10
105.697
 20
112.896
 30
0.0
 40
0.5
 41
0.5
  0
VERTEX
  8
0
 10
105.68
 20
112.771
 30
0.0
 40
0.5
 41
0.5
  0
VERTEX
  8
0
 10
105.29
 20
112.069
 30
0.0
 40
0.5
 41
0.5
  0
VERTEX
  8
0
 10
104.445
 20
111.751
 30
0.0
 40
0.5
 41
0.5
  0
VERTEX
  8
0
 10
103.615
 20
111.987
 30
0.0
 40
0.5
 41
0.5
  0
VERTEX
  8
0
 10
103.26
 20
112.507
 30
0.0
 40
0.5
 41
0.5
  0
VERTEX
  8
0
 10
103.2
 20
112.771
 30
0.0
 40
0.5
 41
0.5
  0
VERTEX
  8
0
 10
103.185
 20
113.007
 30
0.0
 40
0.5
 41
0.5
  0
VERTEX
  8
0
 10
103.185
 20
113.011
 30
0.0
 40
0.5
 41
0.5
  0
SEQEND
  8
0
  0
POLYLINE
8
0
 62
     0
 66
     1
 10
0
 20
0
 30
0.0
 70
     1
 40
0.5
 41
0.5
  0
VERTEX
  8
0
 10
105.23
 20
113.052
 30
0.0
 40
0.5
 41
0.5
  0
VERTEX
  8
0
 10
105.21
 20
113.146
 30
0.0
 40
0.5
 41
0.5
  0
VERTEX
  8
0
 10
105.11
 20
113.402
 30
0.0
 40
0.5
 41
0.5
  0
VERTEX
  8
0
 10
104.872
 20
113.646
 30
0.0
 40
0.5
 41
0.5
  0
VERTEX
  8
0
 10
104.445
 20
113.757
 30
0.0
 40
0.5
 41
0.5
  0
VERTEX
  8
0
 10
103.827
 20
113.509
 30
0.0
 40
0.5
 41
0.5
  0
VERTEX
  8
0
 10
103.655
 20
112.967
 30
0.0
 40
0.5
 41
0.5
  0
VERTEX
  8
0
 10
103.872
 20
112.442
 30
0.0
 40
0.5
 41
0.5
  0
VERTEX
  8
0
 10
104.29
 20
112.207
 30
0.0
 40
0.5
 41
0.5
  0
VERTEX
  8
0
 10
104.385
 20
112.187
 30
0.0
 40
0.5
 41
0.5
  0
VERTEX
  8
0
 10
104.48
 20
112.182
 30
0.0
 40
0.5
 41
0.5
  0
VERTEX
  8
0
 10
104.992
 20
112.402
 30
0.0
 40
0.5
 41
0.5
  0
VERTEX
  8
0
 10
105.23
 20
112.886
 30
0.0
 40
0.5
 41
0.5
  0
VERTEX
  8
0
 10
105.232
 20
112.934
 30
0.0
 40
0.5
 41
0.5
  0
VERTEX
  8
0
 10
105.235
 20
112.977
 30
0.0
 40
0.5
 41
0.5
  0
VERTEX
  8
0
 10
105.235
 20
112.994
 30
0.0
 40
0.5
 41
0.5
  0
VERTEX
  8
0
 10
105.235
 20
113.011
 30
0.0
 40
0.5
 41
0.5
  0
VERTEX
  8
0
 10
105.23
 20
113.029
 30
0.0
 40
0.5
 41
0.5
  0
VERTEX
  8
0
 10
105.23
 20
113.047
 30
0.0
 40
0.5
 41
0.5
  0
VERTEX
  8
0
 10
105.23
 20
113.052
 30
0.0
 40
0.5
 41
0.5
  0
SEQEND
  8
0
  0
POLYLINE
8
0
 62
     0
 66
     1
 10
0
 20
0
 30
0.0
 70
     1
 40
0.5
 41
0.5
  0
VERTEX
  8
0
 10
106.605
 20
116.122
 30
0.0
 40
0.5
 41
0.5
  0
VERTEX
  8
0
 10
106.605
 20
111.792
 30
0.0
 40
0.5
 41
0.5
  0
VERTEX
  8
0
 10
106.135
 20
111.792
 30
0.0
 40
0.5
 41
0.5
  0
VERTEX
  8
0
 10
106.135
 20
116.122
 30
0.0
 40
0.5
 41
0.5
  0
VERTEX
  8
0
 10
106.605
 20
116.122
 30
0.0
 40
0.5
 41
0.5
  0
SEQEND
  8
0
  0
POLYLINE
8
0
 62
     0
 66
     1
 10
0
 20
0
 30
0.0
 70
     1
 40
0.5
 41
0.5
  0
VERTEX
  8
0
 10
109.162
 20
114.116
 30
0.0
 40
0.5
 41
0.5
  0
VERTEX
  8
0
 10
109.162
 20
112.777
 30
0.0
 40
0.5
 41
0.5
  0
VERTEX
  8
0
 10
109.162
 20
112.764
 30
0.0
 40
0.5
 41
0.5
  0
VERTEX
  8
0
 10
109.162
 20
112.757
 30
0.0
 40
0.5
 41
0.5
  0
VERTEX
  8
0
 10
108.932
 20
112.009
 30
0.0
 40
0.5
 41
0.5
  0
VERTEX
  8
0
 10
108.177
 20
111.672
 30
0.0
 40
0.5
 41
0.5
  0
VERTEX
  8
0
 10
107.459
 20
111.932
 30
0.0
 40
0.5
 41
0.5
  0
VERTEX
  8
0
 10
107.152
 20
112.692
 30
0.0
 40
0.5
 41
0.5
  0
VERTEX
  8
0
 10
107.152
 20
114.116
 30
0.0
 40
0.5
 41
0.5
  0
VERTEX
  8
0
 10
107.627
 20
114.116
 30
0.0
 40
0.5
 41
0.5
  0
VERTEX
  8
0
 10
107.627
 20
112.817
 30
0.0
 40
0.5
 41
0.5
  0
VERTEX
  8
0
 10
107.634
 20
112.694
 30
0.0
 40
0.5
 41
0.5
  0
VERTEX
  8
0
 10
107.657
 20
112.567
 30
0.0
 40
0.5
 41
0.5
  0
VERTEX
  8
0
 10
107.817
 20
112.247
 30
0.0
 40
0.5
 41
0.5
  0
VERTEX
  8
0
 10
108.177
 20
112.102
 30
0.0
 40
0.5
 41
0.5
  0
VERTEX
  8
0
 10
108.579
 20
112.289
 30
0.0
 40
0.5
 41
0.5
  0
VERTEX
  8
0
 10
108.687
 20
112.771
 30
0.0
 40
0.5
 41
0.5
  0
VERTEX
  8
0
 10
108.687
 20
114.116
 30
0.0
 40
0.5
 41
0.5
  0
VERTEX
  8
0
 10
109.162
 20
114.116
 30
0.0
 40
0.5
 41
0.5
  0
SEQEND
  8
0
  0
POLYLINE
8
0
 62
     0
 66
     1
 10
0
 20
0
 30
0.0
 70
     1
 40
0.5
 41
0.5
  0
VERTEX
  8
0
 10
110.146
 20
113.876
 30
0.0
 40
0.5
 41
0.5
  0
VERTEX
  8
0
 10
110.186
 20
113.942
 30
0.0
 40
0.5
 41
0.5
  0
VERTEX
  8
0
 10
110.265
 20
114.037
 30
0.0
 40
0.5
 41
0.5
  0
VERTEX
  8
0
 10
110.463
 20
114.167
 30
0.0
 40
0.5
 41
0.5
  0
VERTEX
  8
0
 10
110.775
 20
114.227
 30
0.0
 40
0.5
 41
0.5
  0
VERTEX
  8
0
 10
110.868
 20
114.221
 30
0.0
 40
0.5
 41
0.5
  0
VERTEX
  8
0
 10
110.96
 20
114.207
 30
0.0
 40
0.5
 41
0.5
  0
VERTEX
  8
0
 10
111.228
 20
114.084
 30
0.0
 40
0.5
 41
0.5
  0
VERTEX
  8
0
 10
111.446
 20
113.797
 30
0.0
 40
0.5
 41
0.5
  0
VERTEX
  8
0
 10
111.488
 20
113.859
 30
0.0
 40
0.5
 41
0.5
  0
VERTEX
  8
0
 10
111.535
 20
113.922
 30
0.0
 40
0.5
 41
0.5
  0
VERTEX
  8
0
 10
111.795
 20
114.132
 30
0.0
 40
0.5
 41
0.5
  0
VERTEX
  8
0
 10
112.18
 20
114.231
 30
0.0
 40
0.5
 41
0.5
  0
VERTEX
  8
0
 10
112.228
 20
114.231
 30
0.0
 40
0.5
 41
0.5
  0
VERTEX
  8
0
 10
112.271
 20
114.227
 30
0.0
 40
0.5
 41
0.5
  0
VERTEX
  8
0
 10
112.813
 20
113.906
 30
0.0
 40
0.5
 41
0.5
  0
VERTEX
  8
0
 10
112.94
 20
113.202
 30
0.0
 40
0.5
 41
0.5
  0
VERTEX
  8
0
 10
112.94
 20
111.792
 30
0.0
 40
0.5
 41
0.5
  0
VERTEX
  8
0
 10
112.506
 20
111.792
 30
0.0
 40
0.5
 41
0.5
  0
VERTEX
  8
0
 10
112.506
 20
113.207
 30
0.0
 40
0.5
 41
0.5
  0
VERTEX
  8
0
 10
112.408
 20
113.632
 30
0.0
 40
0.5
 41
0.5
  0
VERTEX
  8
0
 10
112.075
 20
113.797
 30
0.0
 40
0.5
 41
0.5
  0
VERTEX
  8
0
 10
111.7
 20
113.659
 30
0.0
 40
0.5
 41
0.5
  0
VERTEX
  8
0
 10
111.561
 20
113.167
 30
0.0
 40
0.5
 41
0.5
  0
VERTEX
  8
0
 10
111.561
 20
111.792
 30
0.0
 40
0.5
 41
0.5
  0
VERTEX
  8
0
 10
111.091
 20
111.792
 30
0.0
 40
0.5
 41
0.5
  0
VERTEX
  8
0
 10
111.091
 20
113.287
 30
0.0
 40
0.5
 41
0.5
  0
VERTEX
  8
0
 10
110.983
 20
113.646
 30
0.0
 40
0.5
 41
0.5
  0
VERTEX
  8
0
 10
110.75
 20
113.787
 30
0.0
 40
0.5
 41
0.5
  0
VERTEX
  8
0
 10
110.703
 20
113.794
 30
0.0
 40
0.5
 41
0.5
  0
VERTEX
  8
0
 10
110.656
 20
113.797
 30
0.0
 40
0.5
 41
0.5
  0
VERTEX
  8
0
 10
110.611
 20
113.797
 30
0.0
 40
0.5
 41
0.5
  0
VERTEX
  8
0
 10
110.565
 20
113.792
 30
0.0
 40
0.5
 41
0.5
  0
VERTEX
  8
0
 10
110.275
 20
113.656
 30
0.0
 40
0.5
 41
0.5
  0
VERTEX
  8
0
 10
110.146
 20
113.202
 30
0.0
 40
0.5
 41
0.5
  0
VERTEX
  8
0
 10
110.146
 20
111.792
 30
0.0
 40
0.5
 41
0.5
  0
VERTEX
  8
0
 10
109.67
 20
111.792
 30
0.0
 40
0.5
 41
0.5
  0
VERTEX
  8
0
 10
109.67
 20
114.116
 30
0.0
 40
0.5
 41
0.5
  0
VERTEX
  8
0
 10
110.146
 20
114.116
 30
0.0
 40
0.5
 41
0.5
  0
VERTEX
  8
0
 10
110.146
 20
113.876
 30
0.0
 40
0.5
 41
0.5
  0
SEQEND
  8
0
  0
POLYLINE
8
0
 62
     0
 66
     1
 10
0
 20
0
 30
0.0
 70
     1
 40
0.5
 41
0.5
  0
VERTEX
  8
0
 10
115.217
 20
112.577
 30
0.0
 40
0.5
 41
0.5
  0
VERTEX
  8
0
 10
115.607
 20
112.382
 30
0.0
 40
0.5
 41
0.5
  0
VERTEX
  8
0
 10
115.55
 20
112.277
 30
0.0
 40
0.5
 41
0.5
  0
VERTEX
  8
0
 10
115.482
 20
112.172
 30
0.0
 40
0.5
 41
0.5
  0
VERTEX
  8
0
 10
115.137
 20
111.854
 30
0.0
 40
0.5
 41
0.5
  0
VERTEX
  8
0
 10
114.507
 20
111.711
 30
0.0
 40
0.5
 41
0.5
  0
VERTEX
  8
0
 10
113.74
 20
112.067
 30
0.0
 40
0.5
 41
0.5
  0
VERTEX
  8
0
 10
113.407
 20
112.852
 30
0.0
 40
0.5
 41
0.5
  0
VERTEX
  8
0
 10
113.405
 20
112.912
 30
0.0
 40
0.5
 41
0.5
  0
VERTEX
  8
0
 10
113.403
 20
112.971
 30
0.0
 40
0.5
 41
0.5
  0
VERTEX
  8
0
 10
113.403
 20
113.009
 30
0.0
 40
0.5
 41
0.5
  0
VERTEX
  8
0
 10
113.403
 20
113.047
 30
0.0
 40
0.5
 41
0.5
  0
VERTEX
  8
0
 10
113.71
 20
113.894
 30
0.0
 40
0.5
 41
0.5
  0
VERTEX
  8
0
 10
114.547
 20
114.267
 30
0.0
 40
0.5
 41
0.5
  0
VERTEX
  8
0
 10
115.275
 20
113.994
 30
0.0
 40
0.5
 41
0.5
  0
VERTEX
  8
0
 10
115.602
 20
113.396
 30
0.0
 40
0.5
 41
0.5
  0
VERTEX
  8
0
 10
115.64
 20
113.194
 30
0.0
 40
0.5
 41
0.5
  0
VERTEX
  8
0
 10
115.653
 20
113.001
 30
0.0
 40
0.5
 41
0.5
  0
VERTEX
  8
0
 10
115.653
 20
112.942
 30
0.0
 40
0.5
 41
0.5
  0
VERTEX
  8
0
 10
115.647
 20
112.886
 30
0.0
 40
0.5
 41
0.5
  0
VERTEX
  8
0
 10
113.877
 20
112.892
 30
0.0
 40
0.5
 41
0.5
  0
VERTEX
  8
0
 10
114.085
 20
112.354
 30
0.0
 40
0.5
 41
0.5
  0
VERTEX
  8
0
 10
114.587
 20
112.142
 30
0.0
 40
0.5
 41
0.5
  0
VERTEX
  8
0
 10
114.66
 20
112.146
 30
0.0
 40
0.5
 41
0.5
  0
VERTEX
  8
0
 10
114.737
 20
112.162
 30
0.0
 40
0.5
 41
0.5
  0
VERTEX
  8
0
 10
115.015
 20
112.302
 30
0.0
 40
0.5
 41
0.5
  0
VERTEX
  8
0
 10
115.217
 20
112.572
 30
0.0
 40
0.5
 41
0.5
  0
VERTEX
  8
0
 10
115.217
 20
112.577
 30
0.0
 40
0.5
 41
0.5
  0
SEQEND
  8
0
  0
POLYLINE
8
0
 62
     0
 66
     1
 10
0
 20
0
 30
0.0
 70
     1
 40
0.5
 41
0.5
  0
VERTEX
  8
0
 10
115.177
 20
113.247
 30
0.0
 40
0.5
 41
0.5
  0
VERTEX
  8
0
 10
114.98
 20
113.689
 30
0.0
 40
0.5
 41
0.5
  0
VERTEX
  8
0
 10
114.547
 20
113.872
 30
0.0
 40
0.5
 41
0.5
  0
VERTEX
  8
0
 10
114.432
 20
113.859
 30
0.0
 40
0.5
 41
0.5
  0
VERTEX
  8
0
 10
114.313
 20
113.822
 30
0.0
 40
0.5
 41
0.5
  0
VERTEX
  8
0
 10
114.042
 20
113.629
 30
0.0
 40
0.5
 41
0.5
  0
VERTEX
  8
0
 10
113.877
 20
113.241
 30
0.0
 40
0.5
 41
0.5
  0
VERTEX
  8
0
 10
115.177
 20
113.247
 30
0.0
 40
0.5
 41
0.5
  0
SEQEND
  8
0
  0
POLYLINE
8
0
 62
     0
 66
     1
 10
0
 20
0
 30
0.0
 70
     1
 40
0.5
 41
0.5
  0
VERTEX
  8
0
 10
119.148
 20
112.422
 30
0.0
 40
0.5
 41
0.5
  0
VERTEX
  8
0
 10
119.148
 20
111.832
 30
0.0
 40
0.5
 41
0.5
  0
VERTEX
  8
0
 10
118.855
 20
111.727
 30
0.0
 40
0.5
 41
0.5
  0
VERTEX
  8
0
 10
118.538
 20
111.692
 30
0.0
 40
0.5
 41
0.5
  0
VERTEX
  8
0
 10
118.498
 20
111.692
 30
0.0
 40
0.5
 41
0.5
  0
VERTEX
  8
0
 10
118.458
 20
111.692
 30
0.0
 40
0.5
 41
0.5
  0
VERTEX
  8
0
 10
117.633
 20
112.017
 30
0.0
 40
0.5
 41
0.5
  0
VERTEX
  8
0
 10
117.258
 20
112.927
 30
0.0
 40
0.5
 41
0.5
  0
VERTEX
  8
0
 10
117.64
 20
113.902
 30
0.0
 40
0.5
 41
0.5
  0
VERTEX
  8
0
 10
118.508
 20
114.221
 30
0.0
 40
0.5
 41
0.5
  0
VERTEX
  8
0
 10
118.853
 20
114.187
 30
0.0
 40
0.5
 41
0.5
  0
VERTEX
  8
0
 10
119.183
 20
114.072
 30
0.0
 40
0.5
 41
0.5
  0
VERTEX
  8
0
 10
119.183
 20
113.487
 30
0.0
 40
0.5
 41
0.5
  0
VERTEX
  8
0
 10
119.055
 20
113.614
 30
0.0
 40
0.5
 41
0.5
  0
VERTEX
  8
0
 10
118.923
 20
113.702
 30
0.0
 40
0.5
 41
0.5
  0
VERTEX
  8
0
 10
118.66
 20
113.784
 30
0.0
 40
0.5
 41
0.5
  0
VERTEX
  8
0
 10
118.478
 20
113.797
 30
0.0
 40
0.5
 41
0.5
  0
VERTEX
  8
0
 10
117.905
 20
113.514
 30
0.0
 40
0.5
 41
0.5
  0
VERTEX
  8
0
 10
117.708
 20
112.967
 30
0.0
 40
0.5
 41
0.5
  0
VERTEX
  8
0
 10
117.708
 20
112.959
 30
0.0
 40
0.5
 41
0.5
  0
VERTEX
  8
0
 10
117.708
 20
112.952
 30
0.0
 40
0.5
 41
0.5
  0
VERTEX
  8
0
 10
117.895
 20
112.394
 30
0.0
 40
0.5
 41
0.5
  0
VERTEX
  8
0
 10
118.443
 20
112.142
 30
0.0
 40
0.5
 41
0.5
  0
VERTEX
  8
0
 10
118.46
 20
112.142
 30
0.0
 40
0.5
 41
0.5
  0
VERTEX
  8
0
 10
118.478
 20
112.142
 30
0.0
 40
0.5
 41
0.5
  0
VERTEX
  8
0
 10
118.69
 20
112.164
 30
0.0
 40
0.5
 41
0.5
  0
VERTEX
  8
0
 10
119.038
 20
112.327
 30
0.0
 40
0.5
 41
0.5
  0
VERTEX
  8
0
 10
119.095
 20
112.369
 30
0.0
 40
0.5
 41
0.5
  0
VERTEX
  8
0
 10
119.148
 20
112.417
 30
0.0
 40
0.5
 41
0.5
  0
VERTEX
  8
0
 10
119.148
 20
112.422
 30
0.0
 40
0.5
 41
0.5
  0
SEQEND
  8
0
  0
POLYLINE
8
0
 62
     0
 66
     1
 10
0
 20
0
 30
0.0
 70
     1
 40
0.5
 41
0.5
  0
VERTEX
  8
0
 10
119.464
 20
113.011
 30
0.0
 40
0.5
 41
0.5
  0
VERTEX
  8
0
 10
119.466
 20
113.099
 30
0.0
 40
0.5
 41
0.5
  0
VERTEX
  8
0
 10
119.479
 20
113.197
 30
0.0
 40
0.5
 41
0.5
  0
VERTEX
  8
0
 10
119.841
 20
113.876
 30
0.0
 40
0.5
 41
0.5
  0
VERTEX
  8
0
 10
120.724
 20
114.187
 30
0.0
 40
0.5
 41
0.5
  0
VERTEX
  8
0
 10
120.936
 20
114.172
 30
0.0
 40
0.5
 41
0.5
  0
VERTEX
  8
0
 10
121.169
 20
114.122
 30
0.0
 40
0.5
 41
0.5
  0
VERTEX
  8
0
 10
121.714
 20
113.792
 30
0.0
 40
0.5
 41
0.5
  0
VERTEX
  8
0
 10
121.984
 20
113.086
 30
0.0
 40
0.5
 41
0.5
  0
VERTEX
  8
0
 10
121.984
 20
113.072
 30
0.0
 40
0.5
 41
0.5
  0
VERTEX
  8
0
 10
121.984
 20
113.057
 30
0.0
 40
0.5
 41
0.5
  0
VERTEX
  8
0
 10
121.984
 20
113.039
 30
0.0
 40
0.5
 41
0.5
  0
VERTEX
  8
0
 10
121.984
 20
113.021
 30
0.0
 40
0.5
 41
0.5
  0
VERTEX
  8
0
 10
121.976
 20
112.896
 30
0.0
 40
0.5
 41
0.5
  0
VERTEX
  8
0
 10
121.959
 20
112.771
 30
0.0
 40
0.5
 41
0.5
  0
VERTEX
  8
0
 10
121.569
 20
112.069
 30
0.0
 40
0.5
 41
0.5
  0
VERTEX
  8
0
 10
120.724
 20
111.751
 30
0.0
 40
0.5
 41
0.5
  0
VERTEX
  8
0
 10
119.894
 20
111.987
 30
0.0
 40
0.5
 41
0.5
  0
VERTEX
  8
0
 10
119.539
 20
112.507
 30
0.0
 40
0.5
 41
0.5
  0
VERTEX
  8
0
 10
119.479
 20
112.771
 30
0.0
 40
0.5
 41
0.5
  0
VERTEX
  8
0
 10
119.464
 20
113.007
 30
0.0
 40
0.5
 41
0.5
  0
VERTEX
  8
0
 10
119.464
 20
113.011
 30
0.0
 40
0.5
 41
0.5
  0
SEQEND
  8
0
  0
POLYLINE
8
0
 62
     0
 66
     1
 10
0
 20
0
 30
0.0
 70
     1
 40
0.5
 41
0.5
  0
VERTEX
  8
0
 10
121.509
 20
113.052
 30
0.0
 40
0.5
 41
0.5
  0
VERTEX
  8
0
 10
121.489
 20
113.146
 30
0.0
 40
0.5
 41
0.5
  0
VERTEX
  8
0
 10
121.389
 20
113.402
 30
0.0
 40
0.5
 41
0.5
  0
VERTEX
  8
0
 10
121.151
 20
113.646
 30
0.0
 40
0.5
 41
0.5
  0
VERTEX
  8
0
 10
120.724
 20
113.757
 30
0.0
 40
0.5
 41
0.5
  0
VERTEX
  8
0
 10
120.106
 20
113.509
 30
0.0
 40
0.5
 41
0.5
  0
VERTEX
  8
0
 10
119.934
 20
112.967
 30
0.0
 40
0.5
 41
0.5
  0
VERTEX
  8
0
 10
120.151
 20
112.442
 30
0.0
 40
0.5
 41
0.5
  0
VERTEX
  8
0
 10
120.569
 20
112.207
 30
0.0
 40
0.5
 41
0.5
  0
VERTEX
  8
0
 10
120.664
 20
112.187
 30
0.0
 40
0.5
 41
0.5
  0
VERTEX
  8
0
 10
120.759
 20
112.182
 30
0.0
 40
0.5
 41
0.5
  0
VERTEX
  8
0
 10
121.271
 20
112.402
 30
0.0
 40
0.5
 41
0.5
  0
VERTEX
  8
0
 10
121.509
 20
112.886
 30
0.0
 40
0.5
 41
0.5
  0
VERTEX
  8
0
 10
121.511
 20
112.934
 30
0.0
 40
0.5
 41
0.5
  0
VERTEX
  8
0
 10
121.514
 20
112.977
 30
0.0
 40
0.5
 41
0.5
  0
VERTEX
  8
0
 10
121.514
 20
112.994
 30
0.0
 40
0.5
 41
0.5
  0
VERTEX
  8
0
 10
121.514
 20
113.011
 30
0.0
 40
0.5
 41
0.5
  0
VERTEX
  8
0
 10
121.509
 20
113.029
 30
0.0
 40
0.5
 41
0.5
  0
VERTEX
  8
0
 10
121.509
 20
113.047
 30
0.0
 40
0.5
 41
0.5
  0
VERTEX
  8
0
 10
121.509
 20
113.052
 30
0.0
 40
0.5
 41
0.5
  0
SEQEND
  8
0
  0
POLYLINE
8
0
 62
     0
 66
     1
 10
0
 20
0
 30
0.0
 70
     1
 40
0.5
 41
0.5
  0
VERTEX
  8
0
 10
122.809
 20
114.116
 30
0.0
 40
0.5
 41
0.5
  0
VERTEX
  8
0
 10
122.809
 20
113.802
 30
0.0
 40
0.5
 41
0.5
  0
VERTEX
  8
0
 10
122.949
 20
113.934
 30
0.0
 40
0.5
 41
0.5
  0
VERTEX
  8
0
 10
123.069
 20
114.037
 30
0.0
 40
0.5
 41
0.5
  0
VERTEX
  8
0
 10
123.267
 20
114.134
 30
0.0
 40
0.5
 41
0.5
  0
VERTEX
  8
0
 10
123.554
 20
114.187
 30
0.0
 40
0.5
 41
0.5
  0
VERTEX
  8
0
 10
123.664
 20
114.182
 30
0.0
 40
0.5
 41
0.5
  0
VERTEX
  8
0
 10
123.779
 20
114.162
 30
0.0
 40
0.5
 41
0.5
  0
VERTEX
  8
0
 10
124.194
 20
113.922
 30
0.0
 40
0.5
 41
0.5
  0
VERTEX
  8
0
 10
124.384
 20
113.362
 30
0.0
 40
0.5
 41
0.5
  0
VERTEX
  8
0
 10
124.384
 20
111.792
 30
0.0
 40
0.5
 41
0.5
  0
VERTEX
  8
0
 10
123.909
 20
111.792
 30
0.0
 40
0.5
 41
0.5
  0
VERTEX
  8
0
 10
123.909
 20
113.366
 30
0.0
 40
0.5
 41
0.5
  0
VERTEX
  8
0
 10
123.779
 20
113.652
 30
0.0
 40
0.5
 41
0.5
  0
VERTEX
  8
0
 10
123.489
 20
113.787
 30
0.0
 40
0.5
 41
0.5
  0
VERTEX
  8
0
 10
123.444
 20
113.794
 30
0.0
 40
0.5
 41
0.5
  0
VERTEX
  8
0
 10
123.399
 20
113.797
 30
0.0
 40
0.5
 41
0.5
  0
VERTEX
  8
0
 10
123.392
 20
113.797
 30
0.0
 40
0.5
 41
0.5
  0
VERTEX
  8
0
 10
123.384
 20
113.797
 30
0.0
 40
0.5
 41
0.5
  0
VERTEX
  8
0
 10
123.014
 20
113.632
 30
0.0
 40
0.5
 41
0.5
  0
VERTEX
  8
0
 10
122.844
 20
113.126
 30
0.0
 40
0.5
 41
0.5
  0
VERTEX
  8
0
 10
122.844
 20
111.792
 30
0.0
 40
0.5
 41
0.5
  0
VERTEX
  8
0
 10
122.374
 20
111.792
 30
0.0
 40
0.5
 41
0.5
  0
VERTEX
  8
0
 10
122.374
 20
114.116
 30
0.0
 40
0.5
 41
0.5
  0
VERTEX
  8
0
 10
122.809
 20
114.116
 30
0.0
 40
0.5
 41
0.5
  0
SEQEND
  8
0
  0
POLYLINE
8
0
 62
     0
 66
     1
 10
0
 20
0
 30
0.0
 70
     1
 40
0.5
 41
0.5
  0
VERTEX
  8
0
 10
125.052
 20
114.981
 30
0.0
 40
0.5
 41
0.5
  0
VERTEX
  8
0
 10
125.482
 20
114.981
 30
0.0
 40
0.5
 41
0.5
  0
VERTEX
  8
0
 10
125.482
 20
114.116
 30
0.0
 40
0.5
 41
0.5
  0
VERTEX
  8
0
 10
125.957
 20
114.116
 30
0.0
 40
0.5
 41
0.5
  0
VERTEX
  8
0
 10
125.957
 20
113.682
 30
0.0
 40
0.5
 41
0.5
  0
VERTEX
  8
0
 10
125.482
 20
113.682
 30
0.0
 40
0.5
 41
0.5
  0
VERTEX
  8
0
 10
125.482
 20
111.792
 30
0.0
 40
0.5
 41
0.5
  0
VERTEX
  8
0
 10
125.052
 20
111.792
 30
0.0
 40
0.5
 41
0.5
  0
VERTEX
  8
0
 10
125.052
 20
113.682
 30
0.0
 40
0.5
 41
0.5
  0
VERTEX
  8
0
 10
124.777
 20
113.682
 30
0.0
 40
0.5
 41
0.5
  0
VERTEX
  8
0
 10
124.777
 20
114.116
 30
0.0
 40
0.5
 41
0.5
  0
VERTEX
  8
0
 10
125.052
 20
114.116
 30
0.0
 40
0.5
 41
0.5
  0
VERTEX
  8
0
 10
125.052
 20
114.981
 30
0.0
 40
0.5
 41
0.5
  0
SEQEND
  8
0
  0
POLYLINE
8
0
 62
     0
 66
     1
 10
0
 20
0
 30
0.0
 70
     1
 40
0.5
 41
0.5
  0
VERTEX
  8
0
 10
126.617
 20
113.761
 30
0.0
 40
0.5
 41
0.5
  0
VERTEX
  8
0
 10
126.917
 20
114.059
 30
0.0
 40
0.5
 41
0.5
  0
VERTEX
  8
0
 10
127.252
 20
114.156
 30
0.0
 40
0.5
 41
0.5
  0
VERTEX
  8
0
 10
127.445
 20
114.134
 30
0.0
 40
0.5
 41
0.5
  0
VERTEX
  8
0
 10
127.642
 20
114.072
 30
0.0
 40
0.5
 41
0.5
  0
VERTEX
  8
0
 10
127.407
 20
113.642
 30
0.0
 40
0.5
 41
0.5
  0
VERTEX
  8
0
 10
127.31
 20
113.694
 30
0.0
 40
0.5
 41
0.5
  0
VERTEX
  8
0
 10
127.207
 20
113.731
 30
0.0
 40
0.5
 41
0.5
  0
VERTEX
  8
0
 10
127.157
 20
113.739
 30
0.0
 40
0.5
 41
0.5
  0
VERTEX
  8
0
 10
127.107
 20
113.741
 30
0.0
 40
0.5
 41
0.5
  0
VERTEX
  8
0
 10
126.785
 20
113.602
 30
0.0
 40
0.5
 41
0.5
  0
VERTEX
  8
0
 10
126.617
 20
113.167
 30
0.0
 40
0.5
 41
0.5
  0
VERTEX
  8
0
 10
126.617
 20
111.792
 30
0.0
 40
0.5
 41
0.5
  0
VERTEX
  8
0
 10
126.147
 20
111.792
 30
0.0
 40
0.5
 41
0.5
  0
VERTEX
  8
0
 10
126.147
 20
114.116
 30
0.0
 40
0.5
 41
0.5
  0
VERTEX
  8
0
 10
126.617
 20
114.116
 30
0.0
 40
0.5
 41
0.5
  0
VERTEX
  8
0
 10
126.617
 20
113.761
 30
0.0
 40
0.5
 41
0.5
  0
SEQEND
  8
0
  0
POLYLINE
8
0
 62
     0
 66
     1
 10
0
 20
0
 30
0.0
 70
     1
 40
0.5
 41
0.5
  0
VERTEX
  8
0
 10
127.714
 20
113.011
 30
0.0
 40
0.5
 41
0.5
  0
VERTEX
  8
0
 10
127.717
 20
113.099
 30
0.0
 40
0.5
 41
0.5
  0
VERTEX
  8
0
 10
127.729
 20
113.197
 30
0.0
 40
0.5
 41
0.5
  0
VERTEX
  8
0
 10
128.092
 20
113.876
 30
0.0
 40
0.5
 41
0.5
  0
VERTEX
  8
0
 10
128.974
 20
114.187
 30
0.0
 40
0.5
 41
0.5
  0
VERTEX
  8
0
 10
129.187
 20
114.172
 30
0.0
 40
0.5
 41
0.5
  0
VERTEX
  8
0
 10
129.419
 20
114.122
 30
0.0
 40
0.5
 41
0.5
  0
VERTEX
  8
0
 10
129.964
 20
113.792
 30
0.0
 40
0.5
 41
0.5
  0
VERTEX
  8
0
 10
130.235
 20
113.086
 30
0.0
 40
0.5
 41
0.5
  0
VERTEX
  8
0
 10
130.235
 20
113.072
 30
0.0
 40
0.5
 41
0.5
  0
VERTEX
  8
0
 10
130.235
 20
113.057
 30
0.0
 40
0.5
 41
0.5
  0
VERTEX
  8
0
 10
130.235
 20
113.039
 30
0.0
 40
0.5
 41
0.5
  0
VERTEX
  8
0
 10
130.235
 20
113.021
 30
0.0
 40
0.5
 41
0.5
  0
VERTEX
  8
0
 10
130.227
 20
112.896
 30
0.0
 40
0.5
 41
0.5
  0
VERTEX
  8
0
 10
130.209
 20
112.771
 30
0.0
 40
0.5
 41
0.5
  0
VERTEX
  8
0
 10
129.819
 20
112.069
 30
0.0
 40
0.5
 41
0.5
  0
VERTEX
  8
0
 10
128.974
 20
111.751
 30
0.0
 40
0.5
 41
0.5
  0
VERTEX
  8
0
 10
128.144
 20
111.987
 30
0.0
 40
0.5
 41
0.5
  0
VERTEX
  8
0
 10
127.789
 20
112.507
 30
0.0
 40
0.5
 41
0.5
  0
VERTEX
  8
0
 10
127.729
 20
112.771
 30
0.0
 40
0.5
 41
0.5
  0
VERTEX
  8
0
 10
127.714
 20
113.007
 30
0.0
 40
0.5
 41
0.5
  0
VERTEX
  8
0
 10
127.714
 20
113.011
 30
0.0
 40
0.5
 41
0.5
  0
SEQEND
  8
0
  0
POLYLINE
8
0
 62
     0
 66
     1
 10
0
 20
0
 30
0.0
 70
     1
 40
0.5
 41
0.5
  0
VERTEX
  8
0
 10
129.76
 20
113.052
 30
0.0
 40
0.5
 41
0.5
  0
VERTEX
  8
0
 10
129.74
 20
113.146
 30
0.0
 40
0.5
 41
0.5
  0
VERTEX
  8
0
 10
129.639
 20
113.402
 30
0.0
 40
0.5
 41
0.5
  0
VERTEX
  8
0
 10
129.402
 20
113.646
 30
0.0
 40
0.5
 41
0.5
  0
VERTEX
  8
0
 10
128.974
 20
113.757
 30
0.0
 40
0.5
 41
0.5
  0
VERTEX
  8
0
 10
128.357
 20
113.509
 30
0.0
 40
0.5
 41
0.5
  0
VERTEX
  8
0
 10
128.184
 20
112.967
 30
0.0
 40
0.5
 41
0.5
  0
VERTEX
  8
0
 10
128.402
 20
112.442
 30
0.0
 40
0.5
 41
0.5
  0
VERTEX
  8
0
 10
128.819
 20
112.207
 30
0.0
 40
0.5
 41
0.5
  0
VERTEX
  8
0
 10
128.914
 20
112.187
 30
0.0
 40
0.5
 41
0.5
  0
VERTEX
  8
0
 10
129.01
 20
112.182
 30
0.0
 40
0.5
 41
0.5
  0
VERTEX
  8
0
 10
129.522
 20
112.402
 30
0.0
 40
0.5
 41
0.5
  0
VERTEX
  8
0
 10
129.76
 20
112.886
 30
0.0
 40
0.5
 41
0.5
  0
VERTEX
  8
0
 10
129.762
 20
112.934
 30
0.0
 40
0.5
 41
0.5
  0
VERTEX
  8
0
 10
129.764
 20
112.977
 30
0.0
 40
0.5
 41
0.5
  0
VERTEX
  8
0
 10
129.764
 20
112.994
 30
0.0
 40
0.5
 41
0.5
  0
VERTEX
  8
0
 10
129.764
 20
113.011
 30
0.0
 40
0.5
 41
0.5
  0
VERTEX
  8
0
 10
129.76
 20
113.029
 30
0.0
 40
0.5
 41
0.5
  0
VERTEX
  8
0
 10
129.76
 20
113.047
 30
0.0
 40
0.5
 41
0.5
  0
VERTEX
  8
0
 10
129.76
 20
113.052
 30
0.0
 40
0.5
 41
0.5
  0
SEQEND
  8
0
  0
POLYLINE
8
0
 62
     0
 66
     1
 10
0
 20
0
 30
0.0
 70
     1
 40
0.5
 41
0.5
  0
VERTEX
  8
0
 10
131.135
 20
116.122
 30
0.0
 40
0.5
 41
0.5
  0
VERTEX
  8
0
 10
131.135
 20
111.792
 30
0.0
 40
0.5
 41
0.5
  0
VERTEX
  8
0
 10
130.665
 20
111.792
 30
0.0
 40
0.5
 41
0.5
  0
VERTEX
  8
0
 10
130.665
 20
116.122
 30
0.0
 40
0.5
 41
0.5
  0
VERTEX
  8
0
 10
131.135
 20
116.122
 30
0.0
 40
0.5
 41
0.5
  0
SEQEND
  8
0
  0
POLYLINE
8
0
 62
     0
 66
     1
 10
0
 20
0
 30
0.0
 70
     1
 40
0.5
 41
0.5
  0
VERTEX
  8
0
 10
132.231
 20
116.122
 30
0.0
 40
0.5
 41
0.5
  0
VERTEX
  8
0
 10
132.231
 20
111.792
 30
0.0
 40
0.5
 41
0.5
  0
VERTEX
  8
0
 10
131.761
 20
111.792
 30
0.0
 40
0.5
 41
0.5
  0
VERTEX
  8
0
 10
131.761
 20
116.122
 30
0.0
 40
0.5
 41
0.5
  0
VERTEX
  8
0
 10
132.231
 20
116.122
 30
0.0
 40
0.5
 41
0.5
  0
SEQEND
  8
0
  0
POLYLINE
8
0
 62
     0
 66
     1
 10
0
 20
0
 30
0.0
 70
     1
 40
0.5
 41
0.5
  0
VERTEX
  8
0
 10
134.473
 20
112.577
 30
0.0
 40
0.5
 41
0.5
  0
VERTEX
  8
0
 10
134.863
 20
112.382
 30
0.0
 40
0.5
 41
0.5
  0
VERTEX
  8
0
 10
134.805
 20
112.277
 30
0.0
 40
0.5
 41
0.5
  0
VERTEX
  8
0
 10
134.738
 20
112.172
 30
0.0
 40
0.5
 41
0.5
  0
VERTEX
  8
0
 10
134.393
 20
111.854
 30
0.0
 40
0.5
 41
0.5
  0
VERTEX
  8
0
 10
133.763
 20
111.711
 30
0.0
 40
0.5
 41
0.5
  0
VERTEX
  8
0
 10
132.996
 20
112.067
 30
0.0
 40
0.5
 41
0.5
  0
VERTEX
  8
0
 10
132.663
 20
112.852
 30
0.0
 40
0.5
 41
0.5
  0
VERTEX
  8
0
 10
132.66
 20
112.912
 30
0.0
 40
0.5
 41
0.5
  0
VERTEX
  8
0
 10
132.658
 20
112.971
 30
0.0
 40
0.5
 41
0.5
  0
VERTEX
  8
0
 10
132.658
 20
113.009
 30
0.0
 40
0.5
 41
0.5
  0
VERTEX
  8
0
 10
132.658
 20
113.047
 30
0.0
 40
0.5
 41
0.5
  0
VERTEX
  8
0
 10
132.966
 20
113.894
 30
0.0
 40
0.5
 41
0.5
  0
VERTEX
  8
0
 10
133.803
 20
114.267
 30
0.0
 40
0.5
 41
0.5
  0
VERTEX
  8
0
 10
134.531
 20
113.994
 30
0.0
 40
0.5
 41
0.5
  0
VERTEX
  8
0
 10
134.858
 20
113.396
 30
0.0
 40
0.5
 41
0.5
  0
VERTEX
  8
0
 10
134.896
 20
113.194
 30
0.0
 40
0.5
 41
0.5
  0
VERTEX
  8
0
 10
134.908
 20
113.001
 30
0.0
 40
0.5
 41
0.5
  0
VERTEX
  8
0
 10
134.908
 20
112.942
 30
0.0
 40
0.5
 41
0.5
  0
VERTEX
  8
0
 10
134.903
 20
112.886
 30
0.0
 40
0.5
 41
0.5
  0
VERTEX
  8
0
 10
133.133
 20
112.892
 30
0.0
 40
0.5
 41
0.5
  0
VERTEX
  8
0
 10
133.341
 20
112.354
 30
0.0
 40
0.5
 41
0.5
  0
VERTEX
  8
0
 10
133.843
 20
112.142
 30
0.0
 40
0.5
 41
0.5
  0
VERTEX
  8
0
 10
133.916
 20
112.146
 30
0.0
 40
0.5
 41
0.5
  0
VERTEX
  8
0
 10
133.993
 20
112.162
 30
0.0
 40
0.5
 41
0.5
  0
VERTEX
  8
0
 10
134.271
 20
112.302
 30
0.0
 40
0.5
 41
0.5
  0
VERTEX
  8
0
 10
134.473
 20
112.572
 30
0.0
 40
0.5
 41
0.5
  0
VERTEX
  8
0
 10
134.473
 20
112.577
 30
0.0
 40
0.5
 41
0.5
  0
SEQEND
  8
0
  0
POLYLINE
8
0
 62
     0
 66
     1
 10
0
 20
0
 30
0.0
 70
     1
 40
0.5
 41
0.5
  0
VERTEX
  8
0
 10
134.433
 20
113.247
 30
0.0
 40
0.5
 41
0.5
  0
VERTEX
  8
0
 10
134.236
 20
113.689
 30
0.0
 40
0.5
 41
0.5
  0
VERTEX
  8
0
 10
133.803
 20
113.872
 30
0.0
 40
0.5
 41
0.5
  0
VERTEX
  8
0
 10
133.688
 20
113.859
 30
0.0
 40
0.5
 41
0.5
  0
VERTEX
  8
0
 10
133.568
 20
113.822
 30
0.0
 40
0.5
 41
0.5
  0
VERTEX
  8
0
 10
133.298
 20
113.629
 30
0.0
 40
0.5
 41
0.5
  0
VERTEX
  8
0
 10
133.133
 20
113.241
 30
0.0
 40
0.5
 41
0.5
  0
VERTEX
  8
0
 10
134.433
 20
113.247
 30
0.0
 40
0.5
 41
0.5
  0
SEQEND
  8
0
  0
POLYLINE
8
0
 62
     0
 66
     1
 10
0
 20
0
 30
0.0
 70
     1
 40
0.5
 41
0.5
  0
VERTEX
  8
0
 10
135.729
 20
113.761
 30
0.0
 40
0.5
 41
0.5
  0
VERTEX
  8
0
 10
136.029
 20
114.059
 30
0.0
 40
0.5
 41
0.5
  0
VERTEX
  8
0
 10
136.364
 20
114.156
 30
0.0
 40
0.5
 41
0.5
  0
VERTEX
  8
0
 10
136.557
 20
114.134
 30
0.0
 40
0.5
 41
0.5
  0
VERTEX
  8
0
 10
136.754
 20
114.072
 30
0.0
 40
0.5
 41
0.5
  0
VERTEX
  8
0
 10
136.519
 20
113.642
 30
0.0
 40
0.5
 41
0.5
  0
VERTEX
  8
0
 10
136.422
 20
113.694
 30
0.0
 40
0.5
 41
0.5
  0
VERTEX
  8
0
 10
136.319
 20
113.731
 30
0.0
 40
0.5
 41
0.5
  0
VERTEX
  8
0
 10
136.269
 20
113.739
 30
0.0
 40
0.5
 41
0.5
  0
VERTEX
  8
0
 10
136.219
 20
113.741
 30
0.0
 40
0.5
 41
0.5
  0
VERTEX
  8
0
 10
135.897
 20
113.602
 30
0.0
 40
0.5
 41
0.5
  0
VERTEX
  8
0
 10
135.729
 20
113.167
 30
0.0
 40
0.5
 41
0.5
  0
VERTEX
  8
0
 10
135.729
 20
111.792
 30
0.0
 40
0.5
 41
0.5
  0
VERTEX
  8
0
 10
135.259
 20
111.792
 30
0.0
 40
0.5
 41
0.5
  0
VERTEX
  8
0
 10
135.259
 20
114.116
 30
0.0
 40
0.5
 41
0.5
  0
VERTEX
  8
0
 10
135.729
 20
114.116
 30
0.0
 40
0.5
 41
0.5
  0
VERTEX
  8
0
 10
135.729
 20
113.761
 30
0.0
 40
0.5
 41
0.5
  0
SEQEND
  8
0
  0
POLYLINE
8
0
 62
     0
 66
     1
 10
0
 20
0
 30
0.0
 70
     1
 40
0.5
 41
0.5
  0
VERTEX
  8
0
 10
140.72
 20
113.167
 30
0.0
 40
0.5
 41
0.5
  0
VERTEX
  8
0
 10
140.96
 20
113.406
 30
0.0
 40
0.5
 41
0.5
  0
VERTEX
  8
0
 10
141.228
 20
113.484
 30
0.0
 40
0.5
 41
0.5
  0
VERTEX
  8
0
 10
141.382
 20
113.466
 30
0.0
 40
0.5
 41
0.5
  0
VERTEX
  8
0
 10
141.54
 20
113.416
 30
0.0
 40
0.5
 41
0.5
  0
VERTEX
  8
0
 10
141.352
 20
113.072
 30
0.0
 40
0.5
 41
0.5
  0
VERTEX
  8
0
 10
141.274
 20
113.114
 30
0.0
 40
0.5
 41
0.5
  0
VERTEX
  8
0
 10
141.192
 20
113.144
 30
0.0
 40
0.5
 41
0.5
  0
VERTEX
  8
0
 10
141.152
 20
113.15
 30
0.0
 40
0.5
 41
0.5
  0
VERTEX
  8
0
 10
141.112
 20
113.152
 30
0.0
 40
0.5
 41
0.5
  0
VERTEX
  8
0
 10
140.854
 20
113.04
 30
0.0
 40
0.5
 41
0.5
  0
VERTEX
  8
0
 10
140.72
 20
112.692
 30
0.0
 40
0.5
 41
0.5
  0
VERTEX
  8
0
 10
140.72
 20
111.592
 30
0.0
 40
0.5
 41
0.5
  0
VERTEX
  8
0
 10
140.344
 20
111.592
 30
0.0
 40
0.5
 41
0.5
  0
VERTEX
  8
0
 10
140.344
 20
113.452
 30
0.0
 40
0.5
 41
0.5
  0
VERTEX
  8
0
 10
140.72
 20
113.452
 30
0.0
 40
0.5
 41
0.5
  0
VERTEX
  8
0
 10
140.72
 20
113.167
 30
0.0
 40
0.5
 41
0.5
  0
SEQEND
  8
0
  0
POLYLINE
8
0
 62
     0
 66
     1
 10
0
 20
0
 30
0.0
 70
     1
 40
0.5
 41
0.5
  0
VERTEX
  8
0
 10
143.45
 20
113.452
 30
0.0
 40
0.5
 41
0.5
  0
VERTEX
  8
0
 10
142.502
 20
111.528
 30
0.0
 40
0.5
 41
0.5
  0
VERTEX
  8
0
 10
141.558
 20
113.452
 30
0.0
 40
0.5
 41
0.5
  0
VERTEX
  8
0
 10
141.97
 20
113.452
 30
0.0
 40
0.5
 41
0.5
  0
VERTEX
  8
0
 10
142.502
 20
112.283
 30
0.0
 40
0.5
 41
0.5
  0
VERTEX
  8
0
 10
143.038
 20
113.452
 30
0.0
 40
0.5
 41
0.5
  0
VERTEX
  8
0
 10
143.45
 20
113.452
 30
0.0
 40
0.5
 41
0.5
  0
SEQEND
  8
0
  0
POLYLINE
8
0
 62
     0
 66
     1
 10
0
 20
0
 30
0.0
 70
     1
 40
0.5
 41
0.5
  0
VERTEX
  8
0
 10
145.026
 20
112.095
 30
0.0
 40
0.5
 41
0.5
  0
VERTEX
  8
0
 10
145.026
 20
111.624
 30
0.0
 40
0.5
 41
0.5
  0
VERTEX
  8
0
 10
144.792
 20
111.54
 30
0.0
 40
0.5
 41
0.5
  0
VERTEX
  8
0
 10
144.538
 20
111.511
 30
0.0
 40
0.5
 41
0.5
  0
VERTEX
  8
0
 10
144.506
 20
111.511
 30
0.0
 40
0.5
 41
0.5
  0
VERTEX
  8
0
 10
144.474
 20
111.511
 30
0.0
 40
0.5
 41
0.5
  0
VERTEX
  8
0
 10
143.814
 20
111.771
 30
0.0
 40
0.5
 41
0.5
  0
VERTEX
  8
0
 10
143.514
 20
112.5
 30
0.0
 40
0.5
 41
0.5
  0
VERTEX
  8
0
 10
143.82
 20
113.28
 30
0.0
 40
0.5
 41
0.5
  0
VERTEX
  8
0
 10
144.514
 20
113.536
 30
0.0
 40
0.5
 41
0.5
  0
VERTEX
  8
0
 10
144.79
 20
113.508
 30
0.0
 40
0.5
 41
0.5
  0
VERTEX
  8
0
 10
145.054
 20
113.416
 30
0.0
 40
0.5
 41
0.5
  0
VERTEX
  8
0
 10
145.054
 20
112.948
 30
0.0
 40
0.5
 41
0.5
  0
VERTEX
  8
0
 10
144.952
 20
113.05
 30
0.0
 40
0.5
 41
0.5
  0
VERTEX
  8
0
 10
144.846
 20
113.12
 30
0.0
 40
0.5
 41
0.5
  0
VERTEX
  8
0
 10
144.636
 20
113.186
 30
0.0
 40
0.5
 41
0.5
  0
VERTEX
  8
0
 10
144.49
 20
113.196
 30
0.0
 40
0.5
 41
0.5
  0
VERTEX
  8
0
 10
144.032
 20
112.969
 30
0.0
 40
0.5
 41
0.5
  0
VERTEX
  8
0
 10
143.874
 20
112.531
 30
0.0
 40
0.5
 41
0.5
  0
VERTEX
  8
0
 10
143.874
 20
112.526
 30
0.0
 40
0.5
 41
0.5
  0
VERTEX
  8
0
 10
143.874
 20
112.52
 30
0.0
 40
0.5
 41
0.5
  0
VERTEX
  8
0
 10
144.024
 20
112.073
 30
0.0
 40
0.5
 41
0.5
  0
VERTEX
  8
0
 10
144.462
 20
111.872
 30
0.0
 40
0.5
 41
0.5
  0
VERTEX
  8
0
 10
144.476
 20
111.872
 30
0.0
 40
0.5
 41
0.5
  0
VERTEX
  8
0
 10
144.49
 20
111.872
 30
0.0
 40
0.5
 41
0.5
  0
VERTEX
  8
0
 10
144.66
 20
111.89
 30
0.0
 40
0.5
 41
0.5
  0
VERTEX
  8
0
 10
144.938
 20
112.02
 30
0.0
 40
0.5
 41
0.5
  0
VERTEX
  8
0
 10
144.984
 20
112.053
 30
0.0
 40
0.5
 41
0.5
  0
VERTEX
  8
0
 10
145.026
 20
112.092
 30
0.0
 40
0.5
 41
0.5
  0
VERTEX
  8
0
 10
145.026
 20
112.095
 30
0.0
 40
0.5
 41
0.5
  0
SEQEND
  8
0
  0
POLYLINE
8
0
 62
     0
 66
     1
 10
0
 20
0
 30
0.0
 70
     1
 40
0.5
 41
0.5
  0
VERTEX
  8
0
 10
146.287
 20
113.04
 30
0.0
 40
0.5
 41
0.5
  0
VERTEX
  8
0
 10
146.287
 20
112.724
 30
0.0
 40
0.5
 41
0.5
  0
VERTEX
  8
0
 10
145.403
 20
112.724
 30
0.0
 40
0.5
 41
0.5
  0
VERTEX
  8
0
 10
145.403
 20
113.04
 30
0.0
 40
0.5
 41
0.5
  0
VERTEX
  8
0
 10
146.287
 20
113.04
 30
0.0
 40
0.5
 41
0.5
  0
SEQEND
  8
0
  0
POLYLINE
8
0
 62
     0
 66
     1
 10
0
 20
0
 30
0.0
 70
     1
 40
0.5
 41
0.5
  0
VERTEX
  8
0
 10
148.053
 20
113.26
 30
0.0
 40
0.5
 41
0.5
  0
VERTEX
  8
0
 10
148.225
 20
113.53
 30
0.0
 40
0.5
 41
0.5
  0
VERTEX
  8
0
 10
148.277
 20
113.771
 30
0.0
 40
0.5
 41
0.5
  0
VERTEX
  8
0
 10
148.115
 20
114.14
 30
0.0
 40
0.5
 41
0.5
  0
VERTEX
  8
0
 10
147.749
 20
114.296
 30
0.0
 40
0.5
 41
0.5
  0
VERTEX
  8
0
 10
147.727
 20
114.296
 30
0.0
 40
0.5
 41
0.5
  0
VERTEX
  8
0
 10
147.705
 20
114.296
 30
0.0
 40
0.5
 41
0.5
  0
VERTEX
  8
0
 10
147.303
 20
114.152
 30
0.0
 40
0.5
 41
0.5
  0
VERTEX
  8
0
 10
147.133
 20
113.835
 30
0.0
 40
0.5
 41
0.5
  0
VERTEX
  8
0
 10
147.133
 20
113.82
 30
0.0
 40
0.5
 41
0.5
  0
VERTEX
  8
0
 10
147.133
 20
113.803
 30
0.0
 40
0.5
 41
0.5
  0
VERTEX
  8
0
 10
147.133
 20
113.793
 30
0.0
 40
0.5
 41
0.5
  0
VERTEX
  8
0
 10
147.137
 20
113.783
 30
0.0
 40
0.5
 41
0.5
  0
VERTEX
  8
0
 10
147.137
 20
113.771
 30
0.0
 40
0.5
 41
0.5
  0
VERTEX
  8
0
 10
147.137
 20
113.76
 30
0.0
 40
0.5
 41
0.5
  0
VERTEX
  8
0
 10
146.729
 20
113.763
 30
0.0
 40
0.5
 41
0.5
  0
VERTEX
  8
0
 10
147.001
 20
114.38
 30
0.0
 40
0.5
 41
0.5
  0
VERTEX
  8
0
 10
147.673
 20
114.644
 30
0.0
 40
0.5
 41
0.5
  0
VERTEX
  8
0
 10
147.697
 20
114.644
 30
0.0
 40
0.5
 41
0.5
  0
VERTEX
  8
0
 10
147.721
 20
114.644
 30
0.0
 40
0.5
 41
0.5
  0
VERTEX
  8
0
 10
148.429
 20
114.394
 30
0.0
 40
0.5
 41
0.5
  0
VERTEX
  8
0
 10
148.697
 20
113.788
 30
0.0
 40
0.5
 41
0.5
  0
VERTEX
  8
0
 10
148.677
 20
113.602
 30
0.0
 40
0.5
 41
0.5
  0
VERTEX
  8
0
 10
148.613
 20
113.416
 30
0.0
 40
0.5
 41
0.5
  0
VERTEX
  8
0
 10
148.535
 20
113.271
 30
0.0
 40
0.5
 41
0.5
  0
VERTEX
  8
0
 10
148.429
 20
113.132
 30
0.0
 40
0.5
 41
0.5
  0
VERTEX
  8
0
 10
147.421
 20
111.939
 30
0.0
 40
0.5
 41
0.5
  0
VERTEX
  8
0
 10
148.649
 20
111.939
 30
0.0
 40
0.5
 41
0.5
  0
VERTEX
  8
0
 10
148.649
 20
111.592
 30
0.0
 40
0.5
 41
0.5
  0
VERTEX
  8
0
 10
146.697
 20
111.592
 30
0.0
 40
0.5
 41
0.5
  0
VERTEX
  8
0
 10
148.053
 20
113.26
 30
0.0
 40
0.5
 41
0.5
  0
SEQEND
  8
0
  0
POLYLINE
8
0
 62
     0
 66
     1
 10
0
 20
0
 30
0.0
 70
     1
 40
0.5
 41
0.5
  0
VERTEX
  8
0
 10
148.903
 20
113.104
 30
0.0
 40
0.5
 41
0.5
  0
VERTEX
  8
0
 10
148.899
 20
113.13
 30
0.0
 40
0.5
 41
0.5
  0
VERTEX
  8
0
 10
148.899
 20
113.164
 30
0.0
 40
0.5
 41
0.5
  0
VERTEX
  8
0
 10
148.929
 20
113.468
 30
0.0
 40
0.5
 41
0.5
  0
VERTEX
  8
0
 10
149.035
 20
113.867
 30
0.0
 40
0.5
 41
0.5
  0
VERTEX
  8
0
 10
149.359
 20
114.424
 30
0.0
 40
0.5
 41
0.5
  0
VERTEX
  8
0
 10
149.939
 20
114.676
 30
0.0
 40
0.5
 41
0.5
  0
VERTEX
  8
0
 10
150.695
 20
114.253
 30
0.0
 40
0.5
 41
0.5
  0
VERTEX
  8
0
 10
151.003
 20
113.328
 30
0.0
 40
0.5
 41
0.5
  0
VERTEX
  8
0
 10
151.009
 20
113.246
 30
0.0
 40
0.5
 41
0.5
  0
VERTEX
  8
0
 10
151.011
 20
113.164
 30
0.0
 40
0.5
 41
0.5
  0
VERTEX
  8
0
 10
150.999
 20
112.912
 30
0.0
 40
0.5
 41
0.5
  0
VERTEX
  8
0
 10
150.963
 20
112.644
 30
0.0
 40
0.5
 41
0.5
  0
VERTEX
  8
0
 10
150.651
 20
111.875
 30
0.0
 40
0.5
 41
0.5
  0
VERTEX
  8
0
 10
149.971
 20
111.528
 30
0.0
 40
0.5
 41
0.5
  0
VERTEX
  8
0
 10
149.333
 20
111.793
 30
0.0
 40
0.5
 41
0.5
  0
VERTEX
  8
0
 10
149.011
 20
112.38
 30
0.0
 40
0.5
 41
0.5
  0
VERTEX
  8
0
 10
148.925
 20
112.786
 30
0.0
 40
0.5
 41
0.5
  0
VERTEX
  8
0
 10
148.903
 20
113.1
 30
0.0
 40
0.5
 41
0.5
  0
VERTEX
  8
0
 10
148.903
 20
113.104
 30
0.0
 40
0.5
 41
0.5
  0
SEQEND
  8
0
  0
POLYLINE
8
0
 62
     0
 66
     1
 10
0
 20
0
 30
0.0
 70
     1
 40
0.5
 41
0.5
  0
VERTEX
  8
0
 10
150.635
 20
113.135
 30
0.0
 40
0.5
 41
0.5
  0
VERTEX
  8
0
 10
150.479
 20
113.927
 30
0.0
 40
0.5
 41
0.5
  0
VERTEX
  8
0
 10
150.139
 20
114.315
 30
0.0
 40
0.5
 41
0.5
  0
VERTEX
  8
0
 10
150.069
 20
114.345
 30
0.0
 40
0.5
 41
0.5
  0
VERTEX
  8
0
 10
150.003
 20
114.36
 30
0.0
 40
0.5
 41
0.5
  0
VERTEX
  8
0
 10
149.989
 20
114.362
 30
0.0
 40
0.5
 41
0.5
  0
VERTEX
  8
0
 10
149.975
 20
114.364
 30
0.0
 40
0.5
 41
0.5
  0
VERTEX
  8
0
 10
149.961
 20
114.364
 30
0.0
 40
0.5
 41
0.5
  0
VERTEX
  8
0
 10
149.947
 20
114.364
 30
0.0
 40
0.5
 41
0.5
  0
VERTEX
  8
0
 10
149.549
 20
114.135
 30
0.0
 40
0.5
 41
0.5
  0
VERTEX
  8
0
 10
149.343
 20
113.635
 30
0.0
 40
0.5
 41
0.5
  0
VERTEX
  8
0
 10
149.293
 20
113.345
 30
0.0
 40
0.5
 41
0.5
  0
VERTEX
  8
0
 10
149.279
 20
113.1
 30
0.0
 40
0.5
 41
0.5
  0
VERTEX
  8
0
 10
149.295
 20
112.86
 30
0.0
 40
0.5
 41
0.5
  0
VERTEX
  8
0
 10
149.347
 20
112.575
 30
0.0
 40
0.5
 41
0.5
  0
VERTEX
  8
0
 10
149.553
 20
112.092
 30
0.0
 40
0.5
 41
0.5
  0
VERTEX
  8
0
 10
149.939
 20
111.872
 30
0.0
 40
0.5
 41
0.5
  0
VERTEX
  8
0
 10
150.465
 20
112.241
 30
0.0
 40
0.5
 41
0.5
  0
VERTEX
  8
0
 10
150.635
 20
113.132
 30
0.0
 40
0.5
 41
0.5
  0
VERTEX
  8
0
 10
150.635
 20
113.135
 30
0.0
 40
0.5
 41
0.5
  0
SEQEND
  8
0
  0
POLYLINE
8
0
 62
     0
 66
     1
 10
0
 20
0
 30
0.0
 70
     1
 40
0.5
 41
0.5
  0
VERTEX
  8
0
 10
151.2
 20
113.104
 30
0.0
 40
0.5
 41
0.5
  0
VERTEX
  8
0
 10
151.197
 20
113.13
 30
0.0
 40
0.5
 41
0.5
  0
VERTEX
  8
0
 10
151.197
 20
113.164
 30
0.0
 40
0.5
 41
0.5
  0
VERTEX
  8
0
 10
151.227
 20
113.468
 30
0.0
 40
0.5
 41
0.5
  0
VERTEX
  8
0
 10
151.333
 20
113.867
 30
0.0
 40
0.5
 41
0.5
  0
VERTEX
  8
0
 10
151.656
 20
114.424
 30
0.0
 40
0.5
 41
0.5
  0
VERTEX
  8
0
 10
152.237
 20
114.676
 30
0.0
 40
0.5
 41
0.5
  0
VERTEX
  8
0
 10
152.992
 20
114.253
 30
0.0
 40
0.5
 41
0.5
  0
VERTEX
  8
0
 10
153.301
 20
113.328
 30
0.0
 40
0.5
 41
0.5
  0
VERTEX
  8
0
 10
153.306
 20
113.246
 30
0.0
 40
0.5
 41
0.5
  0
VERTEX
  8
0
 10
153.309
 20
113.164
 30
0.0
 40
0.5
 41
0.5
  0
VERTEX
  8
0
 10
153.296
 20
112.912
 30
0.0
 40
0.5
 41
0.5
  0
VERTEX
  8
0
 10
153.26
 20
112.644
 30
0.0
 40
0.5
 41
0.5
  0
VERTEX
  8
0
 10
152.948
 20
111.875
 30
0.0
 40
0.5
 41
0.5
  0
VERTEX
  8
0
 10
152.269
 20
111.528
 30
0.0
 40
0.5
 41
0.5
  0
VERTEX
  8
0
 10
151.631
 20
111.793
 30
0.0
 40
0.5
 41
0.5
  0
VERTEX
  8
0
 10
151.309
 20
112.38
 30
0.0
 40
0.5
 41
0.5
  0
VERTEX
  8
0
 10
151.222
 20
112.786
 30
0.0
 40
0.5
 41
0.5
  0
VERTEX
  8
0
 10
151.2
 20
113.1
 30
0.0
 40
0.5
 41
0.5
  0
VERTEX
  8
0
 10
151.2
 20
113.104
 30
0.0
 40
0.5
 41
0.5
  0
SEQEND
  8
0
  0
POLYLINE
8
0
 62
     0
 66
     1
 10
0
 20
0
 30
0.0
 70
     1
 40
0.5
 41
0.5
  0
VERTEX
  8
0
 10
152.933
 20
113.135
 30
0.0
 40
0.5
 41
0.5
  0
VERTEX
  8
0
 10
152.777
 20
113.927
 30
0.0
 40
0.5
 41
0.5
  0
VERTEX
  8
0
 10
152.437
 20
114.315
 30
0.0
 40
0.5
 41
0.5
  0
VERTEX
  8
0
 10
152.366
 20
114.345
 30
0.0
 40
0.5
 41
0.5
  0
VERTEX
  8
0
 10
152.301
 20
114.36
 30
0.0
 40
0.5
 41
0.5
  0
VERTEX
  8
0
 10
152.287
 20
114.362
 30
0.0
 40
0.5
 41
0.5
  0
VERTEX
  8
0
 10
152.273
 20
114.364
 30
0.0
 40
0.5
 41
0.5
  0
VERTEX
  8
0
 10
152.259
 20
114.364
 30
0.0
 40
0.5
 41
0.5
  0
VERTEX
  8
0
 10
152.245
 20
114.364
 30
0.0
 40
0.5
 41
0.5
  0
VERTEX
  8
0
 10
151.846
 20
114.135
 30
0.0
 40
0.5
 41
0.5
  0
VERTEX
  8
0
 10
151.64
 20
113.635
 30
0.0
 40
0.5
 41
0.5
  0
VERTEX
  8
0
 10
151.591
 20
113.345
 30
0.0
 40
0.5
 41
0.5
  0
VERTEX
  8
0
 10
151.576
 20
113.1
 30
0.0
 40
0.5
 41
0.5
  0
VERTEX
  8
0
 10
151.593
 20
112.86
 30
0.0
 40
0.5
 41
0.5
  0
VERTEX
  8
0
 10
151.645
 20
112.575
 30
0.0
 40
0.5
 41
0.5
  0
VERTEX
  8
0
 10
151.851
 20
112.092
 30
0.0
 40
0.5
 41
0.5
  0
VERTEX
  8
0
 10
152.237
 20
111.872
 30
0.0
 40
0.5
 41
0.5
  0
VERTEX
  8
0
 10
152.762
 20
112.241
 30
0.0
 40
0.5
 41
0.5
  0
VERTEX
  8
0
 10
152.933
 20
113.132
 30
0.0
 40
0.5
 41
0.5
  0
VERTEX
  8
0
 10
152.933
 20
113.135
 30
0.0
 40
0.5
 41
0.5
  0
SEQEND
  8
0
  0
POLYLINE
8
0
 62
     0
 66
     1
 10
0
 20
0
 30
0.0
 70
     1
 40
0.5
 41
0.5
  0
VERTEX
  8
0
 10
312.833
 20
113.499
 30
0.0
 40
0.5
 41
0.5
  0
VERTEX
  8
0
 10
313.344
 20
114.006
 30
0.0
 40
0.5
 41
0.5
  0
VERTEX
  8
0
 10
312.833
 20
114.52
 30
0.0
 40
0.5
 41
0.5
  0
VERTEX
  8
0
 10
309.942
 20
114.521
 30
0.0
 40
0.5
 41
0.5
  0
VERTEX
  8
0
 10
309.738
 20
114.312
 30
0.0
 40
0.5
 41
0.5
  0
VERTEX
  8
0
 10
309.74
 20
113.705
 30
0.0
 40
0.5
 41
0.5
  0
VERTEX
  8
0
 10
309.942
 20
113.497
 30
0.0
 40
0.5
 41
0.5
  0
VERTEX
  8
0
 10
312.833
 20
113.499
 30
0.0
 40
0.5
 41
0.5
  0
SEQEND
  8
0
  0
POLYLINE
8
0
 62
     0
 66
     1
 10
0
 20
0
 30
0.0
 70
     1
 40
0.5
 41
0.5
  0
VERTEX
  8
0
 10
334.097
 20
113.984
 30
0.0
 40
0.5
 41
0.5
  0
VERTEX
  8
0
 10
334.233
 20
114.034
 30
0.0
 40
0.5
 41
0.5
  0
VERTEX
  8
0
 10
334.383
 20
113.971
 30
0.0
 40
0.5
 41
0.5
  0
VERTEX
  8
0
 10
335.485
 20
112.832
 30
0.0
 40
0.5
 41
0.5
  0
VERTEX
  8
0
 10
332.981
 20
112.832
 30
0.0
 40
0.5
 41
0.5
  0
VERTEX
  8
0
 10
334.097
 20
113.984
 30
0.0
 40
0.5
 41
0.5
  0
SEQEND
  8
0
  0
POLYLINE
8
0
 62
     0
 66
     1
 10
0
 20
0
 30
0.0
 70
     1
 40
0.5
 41
0.5
  0
VERTEX
  8
0
 10
340.677
 20
113.811
 30
0.0
 40
0.5
 41
0.5
  0
VERTEX
  8
0
 10
341.015
 20
114.467
 30
0.0
 40
0.5
 41
0.5
  0
VERTEX
  8
0
 10
341.353
 20
114.543
 30
0.0
 40
0.5
 41
0.5
  0
VERTEX
  8
0
 10
343.961
 20
114.543
 30
0.0
 40
0.5
 41
0.5
  0
VERTEX
  8
0
 10
344.348
 20
114.467
 30
0.0
 40
0.5
 41
0.5
  0
VERTEX
  8
0
 10
344.734
 20
113.729
 30
0.0
 40
0.5
 41
0.5
  0
VERTEX
  8
0
 10
346.28
 20
113.729
 30
0.0
 40
0.5
 41
0.5
  0
VERTEX
  8
0
 10
346.08
 20
114.64
 30
0.0
 40
0.5
 41
0.5
  0
VERTEX
  8
0
 10
345.643
 20
115.088
 30
0.0
 40
0.5
 41
0.5
  0
VERTEX
  8
0
 10
345.205
 20
115.238
 30
0.0
 40
0.5
 41
0.5
  0
VERTEX
  8
0
 10
345.006
 20
115.251
 30
0.0
 40
0.5
 41
0.5
  0
VERTEX
  8
0
 10
340.419
 20
115.251
 30
0.0
 40
0.5
 41
0.5
  0
VERTEX
  8
0
 10
339.782
 20
115.088
 30
0.0
 40
0.5
 41
0.5
  0
VERTEX
  8
0
 10
339.344
 20
114.64
 30
0.0
 40
0.5
 41
0.5
  0
VERTEX
  8
0
 10
339.146
 20
113.729
 30
0.0
 40
0.5
 41
0.5
  0
VERTEX
  8
0
 10
339.146
 20
113.039
 30
0.0
 40
0.5
 41
0.5
  0
VERTEX
  8
0
 10
339.344
 20
112.127
 30
0.0
 40
0.5
 41
0.5
  0
VERTEX
  8
0
 10
339.782
 20
111.679
 30
0.0
 40
0.5
 41
0.5
  0
VERTEX
  8
0
 10
340.22
 20
111.53
 30
0.0
 40
0.5
 41
0.5
  0
VERTEX
  8
0
 10
340.419
 20
111.516
 30
0.0
 40
0.5
 41
0.5
  0
VERTEX
  8
0
 10
345.006
 20
111.516
 30
0.0
 40
0.5
 41
0.5
  0
VERTEX
  8
0
 10
345.643
 20
111.679
 30
0.0
 40
0.5
 41
0.5
  0
VERTEX
  8
0
 10
346.08
 20
112.127
 30
0.0
 40
0.5
 41
0.5
  0
VERTEX
  8
0
 10
346.28
 20
113.039
 30
0.0
 40
0.5
 41
0.5
  0
VERTEX
  8
0
 10
344.734
 20
113.039
 30
0.0
 40
0.5
 41
0.5
  0
VERTEX
  8
0
 10
344.348
 20
112.3
 30
0.0
 40
0.5
 41
0.5
  0
VERTEX
  8
0
 10
343.961
 20
112.224
 30
0.0
 40
0.5
 41
0.5
  0
VERTEX
  8
0
 10
341.353
 20
112.224
 30
0.0
 40
0.5
 41
0.5
  0
VERTEX
  8
0
 10
340.677
 20
112.956
 30
0.0
 40
0.5
 41
0.5
  0
VERTEX
  8
0
 10
340.677
 20
113.811
 30
0.0
 40
0.5
 41
0.5
  0
SEQEND
  8
0
  0
POLYLINE
8
0
 62
     0
 66
     1
 10
0
 20
0
 30
0.0
 70
     1
 40
0.5
 41
0.5
  0
VERTEX
  8
0
 10
336.114
 20
112.183
 30
0.0
 40
0.5
 41
0.5
  0
VERTEX
  8
0
 10
332.357
 20
112.183
 30
0.0
 40
0.5
 41
0.5
  0
VERTEX
  8
0
 10
331.717
 20
111.516
 30
0.0
 40
0.5
 41
0.5
  0
VERTEX
  8
0
 10
330.254
 20
111.516
 30
0.0
 40
0.5
 41
0.5
  0
VERTEX
  8
0
 10
333.395
 20
114.884
 30
0.0
 40
0.5
 41
0.5
  0
VERTEX
  8
0
 10
334.235
 20
115.25
 30
0.0
 40
0.5
 41
0.5
  0
VERTEX
  8
0
 10
335.069
 20
114.891
 30
0.0
 40
0.5
 41
0.5
  0
VERTEX
  8
0
 10
338.221
 20
111.516
 30
0.0
 40
0.5
 41
0.5
  0
VERTEX
  8
0
 10
336.758
 20
111.516
 30
0.0
 40
0.5
 41
0.5
  0
VERTEX
  8
0
 10
336.114
 20
112.183
 30
0.0
 40
0.5
 41
0.5
  0
SEQEND
  8
0
  0
POLYLINE
8
0
 62
     0
 66
     1
 10
0
 20
0
 30
0.0
 70
     1
 40
0.5
 41
0.5
  0
VERTEX
  8
0
 10
327.029
 20
111.883
 30
0.0
 40
0.5
 41
0.5
  0
VERTEX
  8
0
 10
327.869
 20
111.517
 30
0.0
 40
0.5
 41
0.5
  0
VERTEX
  8
0
 10
328.703
 20
111.876
 30
0.0
 40
0.5
 41
0.5
  0
VERTEX
  8
0
 10
331.855
 20
115.251
 30
0.0
 40
0.5
 41
0.5
  0
VERTEX
  8
0
 10
330.392
 20
115.251
 30
0.0
 40
0.5
 41
0.5
  0
VERTEX
  8
0
 10
328.017
 20
112.796
 30
0.0
 40
0.5
 41
0.5
  0
VERTEX
  8
0
 10
327.867
 20
112.733
 30
0.0
 40
0.5
 41
0.5
  0
VERTEX
  8
0
 10
327.731
 20
112.783
 30
0.0
 40
0.5
 41
0.5
  0
VERTEX
  8
0
 10
325.351
 20
115.251
 30
0.0
 40
0.5
 41
0.5
  0
VERTEX
  8
0
 10
323.888
 20
115.251
 30
0.0
 40
0.5
 41
0.5
  0
VERTEX
  8
0
 10
327.029
 20
111.883
 30
0.0
 40
0.5
 41
0.5
  0
SEQEND
  8
0
  0
POLYLINE
8
0
 62
     0
 66
     1
 10
0
 20
0
 30
0.0
 70
     1
 40
0.5
 41
0.5
  0
VERTEX
  8
0
 10
322.766
 20
114.52
 30
0.0
 40
0.5
 41
0.5
  0
VERTEX
  8
0
 10
322.766
 20
115.253
 30
0.0
 40
0.5
 41
0.5
  0
VERTEX
  8
0
 10
316.828
 20
115.252
 30
0.0
 40
0.5
 41
0.5
  0
VERTEX
  8
0
 10
316.307
 20
114.73
 30
0.0
 40
0.5
 41
0.5
  0
VERTEX
  8
0
 10
316.307
 20
112.04
 30
0.0
 40
0.5
 41
0.5
  0
VERTEX
  8
0
 10
316.828
 20
111.518
 30
0.0
 40
0.5
 41
0.5
  0
VERTEX
  8
0
 10
322.757
 20
111.516
 30
0.0
 40
0.5
 41
0.5
  0
VERTEX
  8
0
 10
322.757
 20
112.247
 30
0.0
 40
0.5
 41
0.5
  0
VERTEX
  8
0
 10
318.029
 20
112.245
 30
0.0
 40
0.5
 41
0.5
  0
VERTEX
  8
0
 10
317.904
 20
112.37
 30
0.0
 40
0.5
 41
0.5
  0
VERTEX
  8
0
 10
317.904
 20
112.913
 30
0.0
 40
0.5
 41
0.5
  0
VERTEX
  8
0
 10
318.029
 20
113.038
 30
0.0
 40
0.5
 41
0.5
  0
VERTEX
  8
0
 10
322.766
 20
113.039
 30
0.0
 40
0.5
 41
0.5
  0
VERTEX
  8
0
 10
322.766
 20
113.705
 30
0.0
 40
0.5
 41
0.5
  0
VERTEX
  8
0
 10
318.029
 20
113.708
 30
0.0
 40
0.5
 41
0.5
  0
VERTEX
  8
0
 10
317.904
 20
113.833
 30
0.0
 40
0.5
 41
0.5
  0
VERTEX
  8
0
 10
317.904
 20
114.394
 30
0.0
 40
0.5
 41
0.5
  0
VERTEX
  8
0
 10
318.029
 20
114.52
 30
0.0
 40
0.5
 41
0.5
  0
VERTEX
  8
0
 10
322.766
 20
114.52
 30
0.0
 40
0.5
 41
0.5
  0
SEQEND
  8
0
  0
POLYLINE
8
0
 62
     0
 66
     1
 10
0
 20
0
 30
0.0
 70
     1
 40
0.5
 41
0.5
  0
VERTEX
  8
0
 10
309.733
 20
112.537
 30
0.0
 40
0.5
 41
0.5
  0
VERTEX
  8
0
 10
309.942
 20
112.749
 30
0.0
 40
0.5
 41
0.5
  0
VERTEX
  8
0
 10
312.384
 20
112.749
 30
0.0
 40
0.5
 41
0.5
  0
VERTEX
  8
0
 10
312.869
 20
112.617
 30
0.0
 40
0.5
 41
0.5
  0
VERTEX
  8
0
 10
313.355
 20
111.516
 30
0.0
 40
0.5
 41
0.5
  0
VERTEX
  8
0
 10
315.038
 20
111.516
 30
0.0
 40
0.5
 41
0.5
  0
VERTEX
  8
0
 10
314.827
 20
112.323
 30
0.0
 40
0.5
 41
0.5
  0
VERTEX
  8
0
 10
314.381
 20
112.671
 30
0.0
 40
0.5
 41
0.5
  0
VERTEX
  8
0
 10
314.358
 20
112.681
 30
0.0
 40
0.5
 41
0.5
  0
VERTEX
  8
0
 10
314.289
 20
112.794
 30
0.0
 40
0.5
 41
0.5
  0
VERTEX
  8
0
 10
314.359
 20
112.906
 30
0.0
 40
0.5
 41
0.5
  0
VERTEX
  8
0
 10
314.381
 20
112.914
 30
0.0
 40
0.5
 41
0.5
  0
VERTEX
  8
0
 10
315.02
 20
114.06
 30
0.0
 40
0.5
 41
0.5
  0
VERTEX
  8
0
 10
314.445
 20
115.109
 30
0.0
 40
0.5
 41
0.5
  0
VERTEX
  8
0
 10
313.87
 20
115.251
 30
0.0
 40
0.5
 41
0.5
  0
VERTEX
  8
0
 10
308.733
 20
115.252
 30
0.0
 40
0.5
 41
0.5
  0
VERTEX
  8
0
 10
308.198
 20
114.689
 30
0.0
 40
0.5
 41
0.5
  0
VERTEX
  8
0
 10
308.194
 20
111.516
 30
0.0
 40
0.5
 41
0.5
  0
VERTEX
  8
0
 10
309.735
 20
111.516
 30
0.0
 40
0.5
 41
0.5
  0
VERTEX
  8
0
 10
309.735
 20
112.537
 30
0.0
 40
0.5
 41
0.5
  0
VERTEX
  8
0
 10
309.733
 20
112.537
 30
0.0
 40
0.5
 41
0.5
  0
SEQEND
  8
0
  0
POLYLINE
8
0
 62
     0
 66
     1
 10
0
 20
0
 30
0.0
 70
     1
 40
0.5
 41
0.5
  0
VERTEX
  8
0
 10
90.6736
 20
80.6948
 30
0.0
 40
0.5
 41
0.5
  0
VERTEX
  8
0
 10
90.7378
 20
80.7527
 30
0.0
 40
0.5
 41
0.5
  0
VERTEX
  8
0
 10
90.8018
 20
80.8108
 30
0.0
 40
0.5
 41
0.5
  0
VERTEX
  8
0
 10
91.0696
 20
80.9768
 30
0.0
 40
0.5
 41
0.5
  0
VERTEX
  8
0
 10
91.3977
 20
81.0347
 30
0.0
 40
0.5
 41
0.5
  0
VERTEX
  8
0
 10
91.4436
 20
81.0327
 30
0.0
 40
0.5
 41
0.5
  0
VERTEX
  8
0
 10
91.4897
 20
81.0308
 30
0.0
 40
0.5
 41
0.5
  0
VERTEX
  8
0
 10
92.0117
 20
80.7368
 30
0.0
 40
0.5
 41
0.5
  0
VERTEX
  8
0
 10
92.2498
 20
79.9946
 30
0.0
 40
0.5
 41
0.5
  0
VERTEX
  8
0
 10
91.9978
 20
79.3247
 30
0.0
 40
0.5
 41
0.5
  0
VERTEX
  8
0
 10
91.3657
 20
79.0547
 30
0.0
 40
0.5
 41
0.5
  0
VERTEX
  8
0
 10
90.9756
 20
79.1328
 30
0.0
 40
0.5
 41
0.5
  0
VERTEX
  8
0
 10
90.7058
 20
79.3987
 30
0.0
 40
0.5
 41
0.5
  0
VERTEX
  8
0
 10
90.7058
 20
78.0466
 30
0.0
 40
0.5
 41
0.5
  0
VERTEX
  8
0
 10
90.3257
 20
78.0466
 30
0.0
 40
0.5
 41
0.5
  0
VERTEX
  8
0
 10
90.3257
 20
80.9788
 30
0.0
 40
0.5
 41
0.5
  0
VERTEX
  8
0
 10
90.6736
 20
80.9788
 30
0.0
 40
0.5
 41
0.5
  0
VERTEX
  8
0
 10
90.6736
 20
80.6948
 30
0.0
 40
0.5
 41
0.5
  0
SEQEND
  8
0
  0
POLYLINE
8
0
 62
     0
 66
     1
 10
0
 20
0
 30
0.0
 70
     1
 40
0.5
 41
0.5
  0
VERTEX
  8
0
 10
91.8696
 20
80.0627
 30
0.0
 40
0.5
 41
0.5
  0
VERTEX
  8
0
 10
91.6858
 20
80.5447
 30
0.0
 40
0.5
 41
0.5
  0
VERTEX
  8
0
 10
91.2417
 20
80.7227
 30
0.0
 40
0.5
 41
0.5
  0
VERTEX
  8
0
 10
90.8518
 20
80.5566
 30
0.0
 40
0.5
 41
0.5
  0
VERTEX
  8
0
 10
90.6736
 20
80.0588
 30
0.0
 40
0.5
 41
0.5
  0
VERTEX
  8
0
 10
90.8076
 20
79.5728
 30
0.0
 40
0.5
 41
0.5
  0
VERTEX
  8
0
 10
91.2698
 20
79.3667
 30
0.0
 40
0.5
 41
0.5
  0
VERTEX
  8
0
 10
91.7058
 20
79.5608
 30
0.0
 40
0.5
 41
0.5
  0
VERTEX
  8
0
 10
91.8738
 20
79.9988
 30
0.0
 40
0.5
 41
0.5
  0
VERTEX
  8
0
 10
91.8738
 20
80.0146
 30
0.0
 40
0.5
 41
0.5
  0
VERTEX
  8
0
 10
91.8738
 20
80.0308
 30
0.0
 40
0.5
 41
0.5
  0
VERTEX
  8
0
 10
91.8696
 20
80.0427
 30
0.0
 40
0.5
 41
0.5
  0
VERTEX
  8
0
 10
91.8696
 20
80.0588
 30
0.0
 40
0.5
 41
0.5
  0
VERTEX
  8
0
 10
91.8696
 20
80.0627
 30
0.0
 40
0.5
 41
0.5
  0
SEQEND
  8
0
  0
POLYLINE
8
0
 62
     0
 66
     1
 10
0
 20
0
 30
0.0
 70
     1
 40
0.5
 41
0.5
  0
VERTEX
  8
0
 10
92.4688
 20
80.0947
 30
0.0
 40
0.5
 41
0.5
  0
VERTEX
  8
0
 10
92.4707
 20
80.1648
 30
0.0
 40
0.5
 41
0.5
  0
VERTEX
  8
0
 10
92.4807
 20
80.2427
 30
0.0
 40
0.5
 41
0.5
  0
VERTEX
  8
0
 10
92.7708
 20
80.7866
 30
0.0
 40
0.5
 41
0.5
  0
VERTEX
  8
0
 10
93.4768
 20
81.0347
 30
0.0
 40
0.5
 41
0.5
  0
VERTEX
  8
0
 10
93.6467
 20
81.0227
 30
0.0
 40
0.5
 41
0.5
  0
VERTEX
  8
0
 10
93.8328
 20
80.9827
 30
0.0
 40
0.5
 41
0.5
  0
VERTEX
  8
0
 10
94.2688
 20
80.7188
 30
0.0
 40
0.5
 41
0.5
  0
VERTEX
  8
0
 10
94.4846
 20
80.1548
 30
0.0
 40
0.5
 41
0.5
  0
VERTEX
  8
0
 10
94.4846
 20
80.1428
 30
0.0
 40
0.5
 41
0.5
  0
VERTEX
  8
0
 10
94.4846
 20
80.1309
 30
0.0
 40
0.5
 41
0.5
  0
VERTEX
  8
0
 10
94.4846
 20
80.1167
 30
0.0
 40
0.5
 41
0.5
  0
VERTEX
  8
0
 10
94.4846
 20
80.1028
 30
0.0
 40
0.5
 41
0.5
  0
VERTEX
  8
0
 10
94.4788
 20
80.0027
 30
0.0
 40
0.5
 41
0.5
  0
VERTEX
  8
0
 10
94.4646
 20
79.9028
 30
0.0
 40
0.5
 41
0.5
  0
VERTEX
  8
0
 10
94.1526
 20
79.3408
 30
0.0
 40
0.5
 41
0.5
  0
VERTEX
  8
0
 10
93.4768
 20
79.0867
 30
0.0
 40
0.5
 41
0.5
  0
VERTEX
  8
0
 10
92.8127
 20
79.2747
 30
0.0
 40
0.5
 41
0.5
  0
VERTEX
  8
0
 10
92.5288
 20
79.6907
 30
0.0
 40
0.5
 41
0.5
  0
VERTEX
  8
0
 10
92.4807
 20
79.9028
 30
0.0
 40
0.5
 41
0.5
  0
VERTEX
  8
0
 10
92.4688
 20
80.0908
 30
0.0
 40
0.5
 41
0.5
  0
VERTEX
  8
0
 10
92.4688
 20
80.0947
 30
0.0
 40
0.5
 41
0.5
  0
SEQEND
  8
0
  0
POLYLINE
8
0
 62
     0
 66
     1
 10
0
 20
0
 30
0.0
 70
     1
 40
0.5
 41
0.5
  0
VERTEX
  8
0
 10
94.1047
 20
80.1267
 30
0.0
 40
0.5
 41
0.5
  0
VERTEX
  8
0
 10
94.0886
 20
80.2026
 30
0.0
 40
0.5
 41
0.5
  0
VERTEX
  8
0
 10
94.0088
 20
80.4067
 30
0.0
 40
0.5
 41
0.5
  0
VERTEX
  8
0
 10
93.8186
 20
80.6028
 30
0.0
 40
0.5
 41
0.5
  0
VERTEX
  8
0
 10
93.4768
 20
80.6907
 30
0.0
 40
0.5
 41
0.5
  0
VERTEX
  8
0
 10
92.9827
 20
80.4927
 30
0.0
 40
0.5
 41
0.5
  0
VERTEX
  8
0
 10
92.8447
 20
80.0588
 30
0.0
 40
0.5
 41
0.5
  0
VERTEX
  8
0
 10
93.0188
 20
79.6387
 30
0.0
 40
0.5
 41
0.5
  0
VERTEX
  8
0
 10
93.3528
 20
79.4507
 30
0.0
 40
0.5
 41
0.5
  0
VERTEX
  8
0
 10
93.4287
 20
79.4348
 30
0.0
 40
0.5
 41
0.5
  0
VERTEX
  8
0
 10
93.5046
 20
79.4307
 30
0.0
 40
0.5
 41
0.5
  0
VERTEX
  8
0
 10
93.9148
 20
79.6067
 30
0.0
 40
0.5
 41
0.5
  0
VERTEX
  8
0
 10
94.1047
 20
79.9946
 30
0.0
 40
0.5
 41
0.5
  0
VERTEX
  8
0
 10
94.1067
 20
80.0327
 30
0.0
 40
0.5
 41
0.5
  0
VERTEX
  8
0
 10
94.1086
 20
80.0667
 30
0.0
 40
0.5
 41
0.5
  0
VERTEX
  8
0
 10
94.1086
 20
80.0808
 30
0.0
 40
0.5
 41
0.5
  0
VERTEX
  8
0
 10
94.1086
 20
80.0947
 30
0.0
 40
0.5
 41
0.5
  0
VERTEX
  8
0
 10
94.1047
 20
80.1086
 30
0.0
 40
0.5
 41
0.5
  0
VERTEX
  8
0
 10
94.1047
 20
80.1228
 30
0.0
 40
0.5
 41
0.5
  0
VERTEX
  8
0
 10
94.1047
 20
80.1267
 30
0.0
 40
0.5
 41
0.5
  0
SEQEND
  8
0
  0
POLYLINE
8
0
 62
     0
 66
     1
 10
0
 20
0
 30
0.0
 70
     1
 40
0.5
 41
0.5
  0
VERTEX
  8
0
 10
94.8931
 20
80.9788
 30
0.0
 40
0.5
 41
0.5
  0
VERTEX
  8
0
 10
95.425
 20
79.7788
 30
0.0
 40
0.5
 41
0.5
  0
VERTEX
  8
0
 10
95.9929
 20
81.0388
 30
0.0
 40
0.5
 41
0.5
  0
VERTEX
  8
0
 10
96.5291
 20
79.8108
 30
0.0
 40
0.5
 41
0.5
  0
VERTEX
  8
0
 10
97.0649
 20
80.9788
 30
0.0
 40
0.5
 41
0.5
  0
VERTEX
  8
0
 10
97.4729
 20
80.9788
 30
0.0
 40
0.5
 41
0.5
  0
VERTEX
  8
0
 10
96.7891
 20
79.6267
 30
0.0
 40
0.5
 41
0.5
  0
VERTEX
  8
0
 10
96.5291
 20
79.0867
 30
0.0
 40
0.5
 41
0.5
  0
VERTEX
  8
0
 10
95.9609
 20
80.2827
 30
0.0
 40
0.5
 41
0.5
  0
VERTEX
  8
0
 10
95.425
 20
79.0867
 30
0.0
 40
0.5
 41
0.5
  0
VERTEX
  8
0
 10
94.481
 20
80.9788
 30
0.0
 40
0.5
 41
0.5
  0
VERTEX
  8
0
 10
94.8931
 20
80.9788
 30
0.0
 40
0.5
 41
0.5
  0
SEQEND
  8
0
  0
POLYLINE
8
0
 62
     0
 66
     1
 10
0
 20
0
 30
0.0
 70
     1
 40
0.5
 41
0.5
  0
VERTEX
  8
0
 10
98.9827
 20
79.7468
 30
0.0
 40
0.5
 41
0.5
  0
VERTEX
  8
0
 10
99.2947
 20
79.5908
 30
0.0
 40
0.5
 41
0.5
  0
VERTEX
  8
0
 10
99.2485
 20
79.5068
 30
0.0
 40
0.5
 41
0.5
  0
VERTEX
  8
0
 10
99.1946
 20
79.4229
 30
0.0
 40
0.5
 41
0.5
  0
VERTEX
  8
0
 10
98.9187
 20
79.1687
 30
0.0
 40
0.5
 41
0.5
  0
VERTEX
  8
0
 10
98.4146
 20
79.0547
 30
0.0
 40
0.5
 41
0.5
  0
VERTEX
  8
0
 10
97.8005
 20
79.3386
 30
0.0
 40
0.5
 41
0.5
  0
VERTEX
  8
0
 10
97.5347
 20
79.9668
 30
0.0
 40
0.5
 41
0.5
  0
VERTEX
  8
0
 10
97.5327
 20
80.0146
 30
0.0
 40
0.5
 41
0.5
  0
VERTEX
  8
0
 10
97.5305
 20
80.0627
 30
0.0
 40
0.5
 41
0.5
  0
VERTEX
  8
0
 10
97.5305
 20
80.0928
 30
0.0
 40
0.5
 41
0.5
  0
VERTEX
  8
0
 10
97.5305
 20
80.1228
 30
0.0
 40
0.5
 41
0.5
  0
VERTEX
  8
0
 10
97.7766
 20
80.8008
 30
0.0
 40
0.5
 41
0.5
  0
VERTEX
  8
0
 10
98.4465
 20
81.0986
 30
0.0
 40
0.5
 41
0.5
  0
VERTEX
  8
0
 10
99.0286
 20
80.8809
 30
0.0
 40
0.5
 41
0.5
  0
VERTEX
  8
0
 10
99.2905
 20
80.4028
 30
0.0
 40
0.5
 41
0.5
  0
VERTEX
  8
0
 10
99.3206
 20
80.2407
 30
0.0
 40
0.5
 41
0.5
  0
VERTEX
  8
0
 10
99.3306
 20
80.0867
 30
0.0
 40
0.5
 41
0.5
  0
VERTEX
  8
0
 10
99.3306
 20
80.0388
 30
0.0
 40
0.5
 41
0.5
  0
VERTEX
  8
0
 10
99.3267
 20
79.9946
 30
0.0
 40
0.5
 41
0.5
  0
VERTEX
  8
0
 10
97.9106
 20
79.9988
 30
0.0
 40
0.5
 41
0.5
  0
VERTEX
  8
0
 10
98.0767
 20
79.5688
 30
0.0
 40
0.5
 41
0.5
  0
VERTEX
  8
0
 10
98.4785
 20
79.3987
 30
0.0
 40
0.5
 41
0.5
  0
VERTEX
  8
0
 10
98.5366
 20
79.4028
 30
0.0
 40
0.5
 41
0.5
  0
VERTEX
  8
0
 10
98.5986
 20
79.4148
 30
0.0
 40
0.5
 41
0.5
  0
VERTEX
  8
0
 10
98.8206
 20
79.5269
 30
0.0
 40
0.5
 41
0.5
  0
VERTEX
  8
0
 10
98.9827
 20
79.7427
 30
0.0
 40
0.5
 41
0.5
  0
VERTEX
  8
0
 10
98.9827
 20
79.7468
 30
0.0
 40
0.5
 41
0.5
  0
SEQEND
  8
0
  0
POLYLINE
8
0
 62
     0
 66
     1
 10
0
 20
0
 30
0.0
 70
     1
 40
0.5
 41
0.5
  0
VERTEX
  8
0
 10
98.9507
 20
80.2827
 30
0.0
 40
0.5
 41
0.5
  0
VERTEX
  8
0
 10
98.7925
 20
80.6367
 30
0.0
 40
0.5
 41
0.5
  0
VERTEX
  8
0
 10
98.4465
 20
80.7827
 30
0.0
 40
0.5
 41
0.5
  0
VERTEX
  8
0
 10
98.3545
 20
80.7727
 30
0.0
 40
0.5
 41
0.5
  0
VERTEX
  8
0
 10
98.2585
 20
80.7427
 30
0.0
 40
0.5
 41
0.5
  0
VERTEX
  8
0
 10
98.0425
 20
80.5886
 30
0.0
 40
0.5
 41
0.5
  0
VERTEX
  8
0
 10
97.9106
 20
80.2788
 30
0.0
 40
0.5
 41
0.5
  0
VERTEX
  8
0
 10
98.9507
 20
80.2827
 30
0.0
 40
0.5
 41
0.5
  0
SEQEND
  8
0
  0
POLYLINE
8
0
 62
     0
 66
     1
 10
0
 20
0
 30
0.0
 70
     1
 40
0.5
 41
0.5
  0
VERTEX
  8
0
 10
99.9875
 20
80.6948
 30
0.0
 40
0.5
 41
0.5
  0
VERTEX
  8
0
 10
100.228
 20
80.9326
 30
0.0
 40
0.5
 41
0.5
  0
VERTEX
  8
0
 10
100.496
 20
81.0107
 30
0.0
 40
0.5
 41
0.5
  0
VERTEX
  8
0
 10
100.649
 20
80.9927
 30
0.0
 40
0.5
 41
0.5
  0
VERTEX
  8
0
 10
100.808
 20
80.9426
 30
0.0
 40
0.5
 41
0.5
  0
VERTEX
  8
0
 10
100.619
 20
80.5986
 30
0.0
 40
0.5
 41
0.5
  0
VERTEX
  8
0
 10
100.542
 20
80.6406
 30
0.0
 40
0.5
 41
0.5
  0
VERTEX
  8
0
 10
100.459
 20
80.6707
 30
0.0
 40
0.5
 41
0.5
  0
VERTEX
  8
0
 10
100.419
 20
80.6768
 30
0.0
 40
0.5
 41
0.5
  0
VERTEX
  8
0
 10
100.379
 20
80.6787
 30
0.0
 40
0.5
 41
0.5
  0
VERTEX
  8
0
 10
100.122
 20
80.5667
 30
0.0
 40
0.5
 41
0.5
  0
VERTEX
  8
0
 10
99.9875
 20
80.2188
 30
0.0
 40
0.5
 41
0.5
  0
VERTEX
  8
0
 10
99.9875
 20
79.1187
 30
0.0
 40
0.5
 41
0.5
  0
VERTEX
  8
0
 10
99.6116
 20
79.1187
 30
0.0
 40
0.5
 41
0.5
  0
VERTEX
  8
0
 10
99.6116
 20
80.9788
 30
0.0
 40
0.5
 41
0.5
  0
VERTEX
  8
0
 10
99.9875
 20
80.9788
 30
0.0
 40
0.5
 41
0.5
  0
VERTEX
  8
0
 10
99.9875
 20
80.6948
 30
0.0
 40
0.5
 41
0.5
  0
SEQEND
  8
0
  0
POLYLINE
8
0
 62
     0
 66
     1
 10
0
 20
0
 30
0.0
 70
     1
 40
0.5
 41
0.5
  0
VERTEX
  8
0
 10
307.853
 20
72.6299
 30
0.0
 40
0.5
 41
0.5
  0
VERTEX
  8
0
 10
307.853
 20
69.571
 30
0.0
 40
0.5
 41
0.5
  0
VERTEX
  8
0
 10
307.548
 20
69.571
 30
0.0
 40
0.5
 41
0.5
  0
VERTEX
  8
0
 10
307.548
 20
69.8474
 30
0.0
 40
0.5
 41
0.5
  0
VERTEX
  8
0
 10
307.433
 20
69.6951
 30
0.0
 40
0.5
 41
0.5
  0
VERTEX
  8
0
 10
307.307
 20
69.5955
 30
0.0
 40
0.5
 41
0.5
  0
VERTEX
  8
0
 10
307.139
 20
69.5325
 30
0.0
 40
0.5
 41
0.5
  0
VERTEX
  8
0
 10
306.999
 20
69.5149
 30
0.0
 40
0.5
 41
0.5
  0
VERTEX
  8
0
 10
306.978
 20
69.5149
 30
0.0
 40
0.5
 41
0.5
  0
VERTEX
  8
0
 10
306.957
 20
69.5149
 30
0.0
 40
0.5
 41
0.5
  0
VERTEX
  8
0
 10
306.474
 20
69.6812
 30
0.0
 40
0.5
 41
0.5
  0
VERTEX
  8
0
 10
306.225
 20
70.0574
 30
0.0
 40
0.5
 41
0.5
  0
VERTEX
  8
0
 10
306.185
 20
70.2166
 30
0.0
 40
0.5
 41
0.5
  0
VERTEX
  8
0
 10
306.173
 20
70.3655
 30
0.0
 40
0.5
 41
0.5
  0
VERTEX
  8
0
 10
306.399
 20
71.0286
 30
0.0
 40
0.5
 41
0.5
  0
VERTEX
  8
0
 10
306.897
 20
71.272
 30
0.0
 40
0.5
 41
0.5
  0
VERTEX
  8
0
 10
306.934
 20
71.2754
 30
0.0
 40
0.5
 41
0.5
  0
VERTEX
  8
0
 10
306.971
 20
71.2754
 30
0.0
 40
0.5
 41
0.5
  0
VERTEX
  8
0
 10
307.058
 20
71.27
 30
0.0
 40
0.5
 41
0.5
  0
VERTEX
  8
0
 10
307.149
 20
71.2544
 30
0.0
 40
0.5
 41
0.5
  0
VERTEX
  8
0
 10
307.361
 20
71.1599
 30
0.0
 40
0.5
 41
0.5
  0
VERTEX
  8
0
 10
307.524
 20
70.9744
 30
0.0
 40
0.5
 41
0.5
  0
VERTEX
  8
0
 10
307.524
 20
72.6299
 30
0.0
 40
0.5
 41
0.5
  0
VERTEX
  8
0
 10
307.853
 20
72.6299
 30
0.0
 40
0.5
 41
0.5
  0
SEQEND
  8
0
  0
POLYLINE
8
0
 62
     0
 66
     1
 10
0
 20
0
 30
0.0
 70
     1
 40
0.5
 41
0.5
  0
VERTEX
  8
0
 10
307.524
 20
70.425
 30
0.0
 40
0.5
 41
0.5
  0
VERTEX
  8
0
 10
307.4
 20
70.845
 30
0.0
 40
0.5
 41
0.5
  0
VERTEX
  8
0
 10
307.027
 20
70.999
 30
0.0
 40
0.5
 41
0.5
  0
VERTEX
  8
0
 10
306.672
 20
70.8501
 30
0.0
 40
0.5
 41
0.5
  0
VERTEX
  8
0
 10
306.516
 20
70.5229
 30
0.0
 40
0.5
 41
0.5
  0
VERTEX
  8
0
 10
306.505
 20
70.4441
 30
0.0
 40
0.5
 41
0.5
  0
VERTEX
  8
0
 10
306.502
 20
70.3655
 30
0.0
 40
0.5
 41
0.5
  0
VERTEX
  8
0
 10
306.512
 20
70.2551
 30
0.0
 40
0.5
 41
0.5
  0
VERTEX
  8
0
 10
306.547
 20
70.1309
 30
0.0
 40
0.5
 41
0.5
  0
VERTEX
  8
0
 10
306.707
 20
69.8945
 30
0.0
 40
0.5
 41
0.5
  0
VERTEX
  8
0
 10
307.027
 20
69.7878
 30
0.0
 40
0.5
 41
0.5
  0
VERTEX
  8
0
 10
307.372
 20
69.9365
 30
0.0
 40
0.5
 41
0.5
  0
VERTEX
  8
0
 10
307.51
 20
70.2639
 30
0.0
 40
0.5
 41
0.5
  0
VERTEX
  8
0
 10
307.521
 20
70.3425
 30
0.0
 40
0.5
 41
0.5
  0
VERTEX
  8
0
 10
307.524
 20
70.4214
 30
0.0
 40
0.5
 41
0.5
  0
VERTEX
  8
0
 10
307.524
 20
70.425
 30
0.0
 40
0.5
 41
0.5
  0
SEQEND
  8
0
  0
POLYLINE
8
0
 62
     0
 66
     1
 10
0
 20
0
 30
0.0
 70
     1
 40
0.5
 41
0.5
  0
VERTEX
  8
0
 10
308.156
 20
70.425
 30
0.0
 40
0.5
 41
0.5
  0
VERTEX
  8
0
 10
308.158
 20
70.4861
 30
0.0
 40
0.5
 41
0.5
  0
VERTEX
  8
0
 10
308.167
 20
70.5544
 30
0.0
 40
0.5
 41
0.5
  0
VERTEX
  8
0
 10
308.421
 20
71.0305
 30
0.0
 40
0.5
 41
0.5
  0
VERTEX
  8
0
 10
309.039
 20
71.2476
 30
0.0
 40
0.5
 41
0.5
  0
VERTEX
  8
0
 10
309.187
 20
71.2371
 30
0.0
 40
0.5
 41
0.5
  0
VERTEX
  8
0
 10
309.35
 20
71.2019
 30
0.0
 40
0.5
 41
0.5
  0
VERTEX
  8
0
 10
309.731
 20
70.9709
 30
0.0
 40
0.5
 41
0.5
  0
VERTEX
  8
0
 10
309.92
 20
70.4775
 30
0.0
 40
0.5
 41
0.5
  0
VERTEX
  8
0
 10
309.92
 20
70.467
 30
0.0
 40
0.5
 41
0.5
  0
VERTEX
  8
0
 10
309.92
 20
70.4565
 30
0.0
 40
0.5
 41
0.5
  0
VERTEX
  8
0
 10
309.92
 20
70.4441
 30
0.0
 40
0.5
 41
0.5
  0
VERTEX
  8
0
 10
309.92
 20
70.4319
 30
0.0
 40
0.5
 41
0.5
  0
VERTEX
  8
0
 10
309.915
 20
70.3445
 30
0.0
 40
0.5
 41
0.5
  0
VERTEX
  8
0
 10
309.903
 20
70.2568
 30
0.0
 40
0.5
 41
0.5
  0
VERTEX
  8
0
 10
309.63
 20
69.7651
 30
0.0
 40
0.5
 41
0.5
  0
VERTEX
  8
0
 10
309.039
 20
69.543
 30
0.0
 40
0.5
 41
0.5
  0
VERTEX
  8
0
 10
308.458
 20
69.7075
 30
0.0
 40
0.5
 41
0.5
  0
VERTEX
  8
0
 10
308.209
 20
70.0715
 30
0.0
 40
0.5
 41
0.5
  0
VERTEX
  8
0
 10
308.167
 20
70.2568
 30
0.0
 40
0.5
 41
0.5
  0
VERTEX
  8
0
 10
308.156
 20
70.4214
 30
0.0
 40
0.5
 41
0.5
  0
VERTEX
  8
0
 10
308.156
 20
70.425
 30
0.0
 40
0.5
 41
0.5
  0
SEQEND
  8
0
  0
POLYLINE
8
0
 62
     0
 66
     1
 10
0
 20
0
 30
0.0
 70
     1
 40
0.5
 41
0.5
  0
VERTEX
  8
0
 10
309.588
 20
70.4529
 30
0.0
 40
0.5
 41
0.5
  0
VERTEX
  8
0
 10
309.574
 20
70.5195
 30
0.0
 40
0.5
 41
0.5
  0
VERTEX
  8
0
 10
309.504
 20
70.698
 30
0.0
 40
0.5
 41
0.5
  0
VERTEX
  8
0
 10
309.338
 20
70.8694
 30
0.0
 40
0.5
 41
0.5
  0
VERTEX
  8
0
 10
309.039
 20
70.9465
 30
0.0
 40
0.5
 41
0.5
  0
VERTEX
  8
0
 10
308.606
 20
70.7732
 30
0.0
 40
0.5
 41
0.5
  0
VERTEX
  8
0
 10
308.486
 20
70.3936
 30
0.0
 40
0.5
 41
0.5
  0
VERTEX
  8
0
 10
308.638
 20
70.0259
 30
0.0
 40
0.5
 41
0.5
  0
VERTEX
  8
0
 10
308.93
 20
69.8613
 30
0.0
 40
0.5
 41
0.5
  0
VERTEX
  8
0
 10
308.997
 20
69.8474
 30
0.0
 40
0.5
 41
0.5
  0
VERTEX
  8
0
 10
309.063
 20
69.844
 30
0.0
 40
0.5
 41
0.5
  0
VERTEX
  8
0
 10
309.422
 20
69.998
 30
0.0
 40
0.5
 41
0.5
  0
VERTEX
  8
0
 10
309.588
 20
70.3374
 30
0.0
 40
0.5
 41
0.5
  0
VERTEX
  8
0
 10
309.59
 20
70.3706
 30
0.0
 40
0.5
 41
0.5
  0
VERTEX
  8
0
 10
309.592
 20
70.4004
 30
0.0
 40
0.5
 41
0.5
  0
VERTEX
  8
0
 10
309.592
 20
70.4126
 30
0.0
 40
0.5
 41
0.5
  0
VERTEX
  8
0
 10
309.592
 20
70.425
 30
0.0
 40
0.5
 41
0.5
  0
VERTEX
  8
0
 10
309.588
 20
70.4373
 30
0.0
 40
0.5
 41
0.5
  0
VERTEX
  8
0
 10
309.588
 20
70.4495
 30
0.0
 40
0.5
 41
0.5
  0
VERTEX
  8
0
 10
309.588
 20
70.4529
 30
0.0
 40
0.5
 41
0.5
  0
SEQEND
  8
0
  0
POLYLINE
8
0
 62
     0
 66
     1
 10
0
 20
0
 30
0.0
 70
     1
 40
0.5
 41
0.5
  0
VERTEX
  8
0
 10
310.278
 20
71.1985
 30
0.0
 40
0.5
 41
0.5
  0
VERTEX
  8
0
 10
310.743
 20
70.1484
 30
0.0
 40
0.5
 41
0.5
  0
VERTEX
  8
0
 10
311.24
 20
71.251
 30
0.0
 40
0.5
 41
0.5
  0
VERTEX
  8
0
 10
311.709
 20
70.1765
 30
0.0
 40
0.5
 41
0.5
  0
VERTEX
  8
0
 10
312.178
 20
71.1985
 30
0.0
 40
0.5
 41
0.5
  0
VERTEX
  8
0
 10
312.535
 20
71.1985
 30
0.0
 40
0.5
 41
0.5
  0
VERTEX
  8
0
 10
311.937
 20
70.0154
 30
0.0
 40
0.5
 41
0.5
  0
VERTEX
  8
0
 10
311.709
 20
69.543
 30
0.0
 40
0.5
 41
0.5
  0
VERTEX
  8
0
 10
311.212
 20
70.5894
 30
0.0
 40
0.5
 41
0.5
  0
VERTEX
  8
0
 10
310.743
 20
69.543
 30
0.0
 40
0.5
 41
0.5
  0
VERTEX
  8
0
 10
309.917
 20
71.1985
 30
0.0
 40
0.5
 41
0.5
  0
VERTEX
  8
0
 10
310.278
 20
71.1985
 30
0.0
 40
0.5
 41
0.5
  0
SEQEND
  8
0
  0
POLYLINE
8
0
 62
     0
 66
     1
 10
0
 20
0
 30
0.0
 70
     1
 40
0.5
 41
0.5
  0
VERTEX
  8
0
 10
313.002
 20
71.1985
 30
0.0
 40
0.5
 41
0.5
  0
VERTEX
  8
0
 10
313.002
 20
70.978
 30
0.0
 40
0.5
 41
0.5
  0
VERTEX
  8
0
 10
313.1
 20
71.0706
 30
0.0
 40
0.5
 41
0.5
  0
VERTEX
  8
0
 10
313.184
 20
71.1423
 30
0.0
 40
0.5
 41
0.5
  0
VERTEX
  8
0
 10
313.323
 20
71.2107
 30
0.0
 40
0.5
 41
0.5
  0
VERTEX
  8
0
 10
313.524
 20
71.2476
 30
0.0
 40
0.5
 41
0.5
  0
VERTEX
  8
0
 10
313.601
 20
71.2439
 30
0.0
 40
0.5
 41
0.5
  0
VERTEX
  8
0
 10
313.681
 20
71.23
 30
0.0
 40
0.5
 41
0.5
  0
VERTEX
  8
0
 10
313.972
 20
71.062
 30
0.0
 40
0.5
 41
0.5
  0
VERTEX
  8
0
 10
314.104
 20
70.6699
 30
0.0
 40
0.5
 41
0.5
  0
VERTEX
  8
0
 10
314.104
 20
69.571
 30
0.0
 40
0.5
 41
0.5
  0
VERTEX
  8
0
 10
313.772
 20
69.571
 30
0.0
 40
0.5
 41
0.5
  0
VERTEX
  8
0
 10
313.772
 20
70.6733
 30
0.0
 40
0.5
 41
0.5
  0
VERTEX
  8
0
 10
313.681
 20
70.873
 30
0.0
 40
0.5
 41
0.5
  0
VERTEX
  8
0
 10
313.478
 20
70.9675
 30
0.0
 40
0.5
 41
0.5
  0
VERTEX
  8
0
 10
313.447
 20
70.9727
 30
0.0
 40
0.5
 41
0.5
  0
VERTEX
  8
0
 10
313.415
 20
70.9744
 30
0.0
 40
0.5
 41
0.5
  0
VERTEX
  8
0
 10
313.41
 20
70.9744
 30
0.0
 40
0.5
 41
0.5
  0
VERTEX
  8
0
 10
313.405
 20
70.9744
 30
0.0
 40
0.5
 41
0.5
  0
VERTEX
  8
0
 10
313.146
 20
70.8589
 30
0.0
 40
0.5
 41
0.5
  0
VERTEX
  8
0
 10
313.027
 20
70.5054
 30
0.0
 40
0.5
 41
0.5
  0
VERTEX
  8
0
 10
313.027
 20
69.571
 30
0.0
 40
0.5
 41
0.5
  0
VERTEX
  8
0
 10
312.698
 20
69.571
 30
0.0
 40
0.5
 41
0.5
  0
VERTEX
  8
0
 10
312.698
 20
71.1985
 30
0.0
 40
0.5
 41
0.5
  0
VERTEX
  8
0
 10
313.002
 20
71.1985
 30
0.0
 40
0.5
 41
0.5
  0
SEQEND
  8
0
  0
POLYLINE
8
0
 62
     0
 66
     1
 10
0
 20
0
 30
0.0
 70
     1
 40
0.5
 41
0.5
  0
VERTEX
  8
0
 10
332.311
 20
71.2009
 30
0.0
 40
0.5
 41
0.5
  0
VERTEX
  8
0
 10
332.311
 20
70.2629
 30
0.0
 40
0.5
 41
0.5
  0
VERTEX
  8
0
 10
332.311
 20
70.2542
 30
0.0
 40
0.5
 41
0.5
  0
VERTEX
  8
0
 10
332.311
 20
70.2488
 30
0.0
 40
0.5
 41
0.5
  0
VERTEX
  8
0
 10
332.15
 20
69.7256
 30
0.0
 40
0.5
 41
0.5
  0
VERTEX
  8
0
 10
331.622
 20
69.4893
 30
0.0
 40
0.5
 41
0.5
  0
VERTEX
  8
0
 10
331.119
 20
69.6714
 30
0.0
 40
0.5
 41
0.5
  0
VERTEX
  8
0
 10
330.904
 20
70.2034
 30
0.0
 40
0.5
 41
0.5
  0
VERTEX
  8
0
 10
330.904
 20
71.2009
 30
0.0
 40
0.5
 41
0.5
  0
VERTEX
  8
0
 10
331.237
 20
71.2009
 30
0.0
 40
0.5
 41
0.5
  0
VERTEX
  8
0
 10
331.237
 20
70.2908
 30
0.0
 40
0.5
 41
0.5
  0
VERTEX
  8
0
 10
331.242
 20
70.2051
 30
0.0
 40
0.5
 41
0.5
  0
VERTEX
  8
0
 10
331.258
 20
70.1157
 30
0.0
 40
0.5
 41
0.5
  0
VERTEX
  8
0
 10
331.369
 20
69.8918
 30
0.0
 40
0.5
 41
0.5
  0
VERTEX
  8
0
 10
331.622
 20
69.7903
 30
0.0
 40
0.5
 41
0.5
  0
VERTEX
  8
0
 10
331.903
 20
69.9216
 30
0.0
 40
0.5
 41
0.5
  0
VERTEX
  8
0
 10
331.979
 20
70.2593
 30
0.0
 40
0.5
 41
0.5
  0
VERTEX
  8
0
 10
331.979
 20
71.2009
 30
0.0
 40
0.5
 41
0.5
  0
VERTEX
  8
0
 10
332.311
 20
71.2009
 30
0.0
 40
0.5
 41
0.5
  0
SEQEND
  8
0
  0
POLYLINE
8
0
 62
     0
 66
     1
 10
0
 20
0
 30
0.0
 70
     1
 40
0.5
 41
0.5
  0
VERTEX
  8
0
 10
332.972
 20
70.9524
 30
0.0
 40
0.5
 41
0.5
  0
VERTEX
  8
0
 10
333.028
 20
71.0032
 30
0.0
 40
0.5
 41
0.5
  0
VERTEX
  8
0
 10
333.083
 20
71.054
 30
0.0
 40
0.5
 41
0.5
  0
VERTEX
  8
0
 10
333.318
 20
71.1992
 30
0.0
 40
0.5
 41
0.5
  0
VERTEX
  8
0
 10
333.605
 20
71.2498
 30
0.0
 40
0.5
 41
0.5
  0
VERTEX
  8
0
 10
333.646
 20
71.248
 30
0.0
 40
0.5
 41
0.5
  0
VERTEX
  8
0
 10
333.686
 20
71.2463
 30
0.0
 40
0.5
 41
0.5
  0
VERTEX
  8
0
 10
334.142
 20
70.9893
 30
0.0
 40
0.5
 41
0.5
  0
VERTEX
  8
0
 10
334.351
 20
70.3398
 30
0.0
 40
0.5
 41
0.5
  0
VERTEX
  8
0
 10
334.13
 20
69.7534
 30
0.0
 40
0.5
 41
0.5
  0
VERTEX
  8
0
 10
333.577
 20
69.5173
 30
0.0
 40
0.5
 41
0.5
  0
VERTEX
  8
0
 10
333.236
 20
69.5854
 30
0.0
 40
0.5
 41
0.5
  0
VERTEX
  8
0
 10
333
 20
69.8184
 30
0.0
 40
0.5
 41
0.5
  0
VERTEX
  8
0
 10
333
 20
68.6353
 30
0.0
 40
0.5
 41
0.5
  0
VERTEX
  8
0
 10
332.667
 20
68.6353
 30
0.0
 40
0.5
 41
0.5
  0
VERTEX
  8
0
 10
332.667
 20
71.2009
 30
0.0
 40
0.5
 41
0.5
  0
VERTEX
  8
0
 10
332.972
 20
71.2009
 30
0.0
 40
0.5
 41
0.5
  0
VERTEX
  8
0
 10
332.972
 20
70.9524
 30
0.0
 40
0.5
 41
0.5
  0
SEQEND
  8
0
  0
POLYLINE
8
0
 62
     0
 66
     1
 10
0
 20
0
 30
0.0
 70
     1
 40
0.5
 41
0.5
  0
VERTEX
  8
0
 10
334.018
 20
70.3994
 30
0.0
 40
0.5
 41
0.5
  0
VERTEX
  8
0
 10
333.857
 20
70.821
 30
0.0
 40
0.5
 41
0.5
  0
VERTEX
  8
0
 10
333.469
 20
70.9768
 30
0.0
 40
0.5
 41
0.5
  0
VERTEX
  8
0
 10
333.127
 20
70.8315
 30
0.0
 40
0.5
 41
0.5
  0
VERTEX
  8
0
 10
332.972
 20
70.3958
 30
0.0
 40
0.5
 41
0.5
  0
VERTEX
  8
0
 10
333.089
 20
69.9707
 30
0.0
 40
0.5
 41
0.5
  0
VERTEX
  8
0
 10
333.493
 20
69.7903
 30
0.0
 40
0.5
 41
0.5
  0
VERTEX
  8
0
 10
333.875
 20
69.9602
 30
0.0
 40
0.5
 41
0.5
  0
VERTEX
  8
0
 10
334.021
 20
70.3433
 30
0.0
 40
0.5
 41
0.5
  0
VERTEX
  8
0
 10
334.021
 20
70.3574
 30
0.0
 40
0.5
 41
0.5
  0
VERTEX
  8
0
 10
334.021
 20
70.3713
 30
0.0
 40
0.5
 41
0.5
  0
VERTEX
  8
0
 10
334.018
 20
70.3818
 30
0.0
 40
0.5
 41
0.5
  0
VERTEX
  8
0
 10
334.018
 20
70.3958
 30
0.0
 40
0.5
 41
0.5
  0
VERTEX
  8
0
 10
334.018
 20
70.3994
 30
0.0
 40
0.5
 41
0.5
  0
SEQEND
  8
0
  0
POLYLINE
8
0
 62
     0
 66
     1
 10
0
 20
0
 30
0.0
 70
     1
 40
0.5
 41
0.5
  0
VERTEX
  8
0
 10
188.184
 20
96.5134
 30
0.0
 40
0.5
 41
0.5
  0
VERTEX
  8
0
 10
188.564
 20
96.5134
 30
0.0
 40
0.5
 41
0.5
  0
VERTEX
  8
0
 10
188.564
 20
94.6255
 30
0.0
 40
0.5
 41
0.5
  0
VERTEX
  8
0
 10
188.774
 20
94.8274
 30
0.0
 40
0.5
 41
0.5
  0
VERTEX
  8
0
 10
189.024
 20
94.9414
 30
0.0
 40
0.5
 41
0.5
  0
VERTEX
  8
0
 10
189.108
 20
94.9595
 30
0.0
 40
0.5
 41
0.5
  0
VERTEX
  8
0
 10
189.192
 20
94.9653
 30
0.0
 40
0.5
 41
0.5
  0
VERTEX
  8
0
 10
189.358
 20
94.9514
 30
0.0
 40
0.5
 41
0.5
  0
VERTEX
  8
0
 10
189.54
 20
94.9055
 30
0.0
 40
0.5
 41
0.5
  0
VERTEX
  8
0
 10
189.95
 20
94.6255
 30
0.0
 40
0.5
 41
0.5
  0
VERTEX
  8
0
 10
190.136
 20
94.0215
 30
0.0
 40
0.5
 41
0.5
  0
VERTEX
  8
0
 10
189.964
 20
93.3416
 30
0.0
 40
0.5
 41
0.5
  0
VERTEX
  8
0
 10
189.584
 20
93.0254
 30
0.0
 40
0.5
 41
0.5
  0
VERTEX
  8
0
 10
189.394
 20
92.9695
 30
0.0
 40
0.5
 41
0.5
  0
VERTEX
  8
0
 10
189.224
 20
92.9534
 30
0.0
 40
0.5
 41
0.5
  0
VERTEX
  8
0
 10
188.822
 20
93.0554
 30
0.0
 40
0.5
 41
0.5
  0
VERTEX
  8
0
 10
188.564
 20
93.2974
 30
0.0
 40
0.5
 41
0.5
  0
VERTEX
  8
0
 10
188.564
 20
93.0173
 30
0.0
 40
0.5
 41
0.5
  0
VERTEX
  8
0
 10
188.184
 20
93.0173
 30
0.0
 40
0.5
 41
0.5
  0
VERTEX
  8
0
 10
188.184
 20
96.5134
 30
0.0
 40
0.5
 41
0.5
  0
SEQEND
  8
0
  0
POLYLINE
8
0
 62
     0
 66
     1
 10
0
 20
0
 30
0.0
 70
     1
 40
0.5
 41
0.5
  0
VERTEX
  8
0
 10
189.728
 20
94.0254
 30
0.0
 40
0.5
 41
0.5
  0
VERTEX
  8
0
 10
189.598
 20
94.4395
 30
0.0
 40
0.5
 41
0.5
  0
VERTEX
  8
0
 10
189.16
 20
94.6213
 30
0.0
 40
0.5
 41
0.5
  0
VERTEX
  8
0
 10
188.734
 20
94.4434
 30
0.0
 40
0.5
 41
0.5
  0
VERTEX
  8
0
 10
188.564
 20
93.9575
 30
0.0
 40
0.5
 41
0.5
  0
VERTEX
  8
0
 10
188.572
 20
93.8335
 30
0.0
 40
0.5
 41
0.5
  0
VERTEX
  8
0
 10
188.596
 20
93.6975
 30
0.0
 40
0.5
 41
0.5
  0
VERTEX
  8
0
 10
188.76
 20
93.3994
 30
0.0
 40
0.5
 41
0.5
  0
VERTEX
  8
0
 10
189.128
 20
93.2654
 30
0.0
 40
0.5
 41
0.5
  0
VERTEX
  8
0
 10
189.558
 20
93.4675
 30
0.0
 40
0.5
 41
0.5
  0
VERTEX
  8
0
 10
189.728
 20
94.0215
 30
0.0
 40
0.5
 41
0.5
  0
VERTEX
  8
0
 10
189.728
 20
94.0254
 30
0.0
 40
0.5
 41
0.5
  0
SEQEND
  8
0
  0
POLYLINE
8
0
 62
     0
 66
     1
 10
0
 20
0
 30
0.0
 70
     1
 40
0.5
 41
0.5
  0
VERTEX
  8
0
 10
192.247
 20
94.9055
 30
0.0
 40
0.5
 41
0.5
  0
VERTEX
  8
0
 10
192.247
 20
93.0173
 30
0.0
 40
0.5
 41
0.5
  0
VERTEX
  8
0
 10
191.867
 20
93.0173
 30
0.0
 40
0.5
 41
0.5
  0
VERTEX
  8
0
 10
191.867
 20
93.3335
 30
0.0
 40
0.5
 41
0.5
  0
VERTEX
  8
0
 10
191.633
 20
93.0854
 30
0.0
 40
0.5
 41
0.5
  0
VERTEX
  8
0
 10
191.207
 20
92.9854
 30
0.0
 40
0.5
 41
0.5
  0
VERTEX
  8
0
 10
190.565
 20
93.2354
 30
0.0
 40
0.5
 41
0.5
  0
VERTEX
  8
0
 10
190.323
 20
93.9575
 30
0.0
 40
0.5
 41
0.5
  0
VERTEX
  8
0
 10
190.595
 20
94.6934
 30
0.0
 40
0.5
 41
0.5
  0
VERTEX
  8
0
 10
191.195
 20
94.9653
 30
0.0
 40
0.5
 41
0.5
  0
VERTEX
  8
0
 10
191.201
 20
94.9653
 30
0.0
 40
0.5
 41
0.5
  0
VERTEX
  8
0
 10
191.207
 20
94.9653
 30
0.0
 40
0.5
 41
0.5
  0
VERTEX
  8
0
 10
191.349
 20
94.9534
 30
0.0
 40
0.5
 41
0.5
  0
VERTEX
  8
0
 10
191.507
 20
94.9133
 30
0.0
 40
0.5
 41
0.5
  0
VERTEX
  8
0
 10
191.707
 20
94.8074
 30
0.0
 40
0.5
 41
0.5
  0
VERTEX
  8
0
 10
191.867
 20
94.6213
 30
0.0
 40
0.5
 41
0.5
  0
VERTEX
  8
0
 10
191.867
 20
94.9055
 30
0.0
 40
0.5
 41
0.5
  0
VERTEX
  8
0
 10
192.247
 20
94.9055
 30
0.0
 40
0.5
 41
0.5
  0
SEQEND
  8
0
  0
POLYLINE
8
0
 62
     0
 66
     1
 10
0
 20
0
 30
0.0
 70
     1
 40
0.5
 41
0.5
  0
VERTEX
  8
0
 10
191.867
 20
93.9934
 30
0.0
 40
0.5
 41
0.5
  0
VERTEX
  8
0
 10
191.739
 20
94.4233
 30
0.0
 40
0.5
 41
0.5
  0
VERTEX
  8
0
 10
191.303
 20
94.6213
 30
0.0
 40
0.5
 41
0.5
  0
VERTEX
  8
0
 10
190.861
 20
94.4553
 30
0.0
 40
0.5
 41
0.5
  0
VERTEX
  8
0
 10
190.703
 20
93.9575
 30
0.0
 40
0.5
 41
0.5
  0
VERTEX
  8
0
 10
190.865
 20
93.4875
 30
0.0
 40
0.5
 41
0.5
  0
VERTEX
  8
0
 10
191.239
 20
93.2974
 30
0.0
 40
0.5
 41
0.5
  0
VERTEX
  8
0
 10
191.707
 20
93.4795
 30
0.0
 40
0.5
 41
0.5
  0
VERTEX
  8
0
 10
191.867
 20
93.9895
 30
0.0
 40
0.5
 41
0.5
  0
VERTEX
  8
0
 10
191.867
 20
93.9934
 30
0.0
 40
0.5
 41
0.5
  0
SEQEND
  8
0
  0
POLYLINE
8
0
 62
     0
 66
     1
 10
0
 20
0
 30
0.0
 70
     1
 40
0.5
 41
0.5
  0
VERTEX
  8
0
 10
193.094
 20
96.4814
 30
0.0
 40
0.5
 41
0.5
  0
VERTEX
  8
0
 10
193.094
 20
93.0173
 30
0.0
 40
0.5
 41
0.5
  0
VERTEX
  8
0
 10
192.718
 20
93.0173
 30
0.0
 40
0.5
 41
0.5
  0
VERTEX
  8
0
 10
192.718
 20
96.4814
 30
0.0
 40
0.5
 41
0.5
  0
VERTEX
  8
0
 10
193.094
 20
96.4814
 30
0.0
 40
0.5
 41
0.5
  0
SEQEND
  8
0
  0
POLYLINE
8
0
 62
     0
 66
     1
 10
0
 20
0
 30
0.0
 70
     1
 40
0.5
 41
0.5
  0
VERTEX
  8
0
 10
195.359
 20
94.9055
 30
0.0
 40
0.5
 41
0.5
  0
VERTEX
  8
0
 10
195.359
 20
93.0173
 30
0.0
 40
0.5
 41
0.5
  0
VERTEX
  8
0
 10
194.979
 20
93.0173
 30
0.0
 40
0.5
 41
0.5
  0
VERTEX
  8
0
 10
194.979
 20
93.3335
 30
0.0
 40
0.5
 41
0.5
  0
VERTEX
  8
0
 10
194.745
 20
93.0854
 30
0.0
 40
0.5
 41
0.5
  0
VERTEX
  8
0
 10
194.319
 20
92.9854
 30
0.0
 40
0.5
 41
0.5
  0
VERTEX
  8
0
 10
193.677
 20
93.2354
 30
0.0
 40
0.5
 41
0.5
  0
VERTEX
  8
0
 10
193.435
 20
93.9575
 30
0.0
 40
0.5
 41
0.5
  0
VERTEX
  8
0
 10
193.707
 20
94.6934
 30
0.0
 40
0.5
 41
0.5
  0
VERTEX
  8
0
 10
194.307
 20
94.9653
 30
0.0
 40
0.5
 41
0.5
  0
VERTEX
  8
0
 10
194.313
 20
94.9653
 30
0.0
 40
0.5
 41
0.5
  0
VERTEX
  8
0
 10
194.319
 20
94.9653
 30
0.0
 40
0.5
 41
0.5
  0
VERTEX
  8
0
 10
194.461
 20
94.9534
 30
0.0
 40
0.5
 41
0.5
  0
VERTEX
  8
0
 10
194.619
 20
94.9133
 30
0.0
 40
0.5
 41
0.5
  0
VERTEX
  8
0
 10
194.819
 20
94.8074
 30
0.0
 40
0.5
 41
0.5
  0
VERTEX
  8
0
 10
194.979
 20
94.6213
 30
0.0
 40
0.5
 41
0.5
  0
VERTEX
  8
0
 10
194.979
 20
94.9055
 30
0.0
 40
0.5
 41
0.5
  0
VERTEX
  8
0
 10
195.359
 20
94.9055
 30
0.0
 40
0.5
 41
0.5
  0
SEQEND
  8
0
  0
POLYLINE
8
0
 62
     0
 66
     1
 10
0
 20
0
 30
0.0
 70
     1
 40
0.5
 41
0.5
  0
VERTEX
  8
0
 10
194.979
 20
93.9934
 30
0.0
 40
0.5
 41
0.5
  0
VERTEX
  8
0
 10
194.851
 20
94.4233
 30
0.0
 40
0.5
 41
0.5
  0
VERTEX
  8
0
 10
194.415
 20
94.6213
 30
0.0
 40
0.5
 41
0.5
  0
VERTEX
  8
0
 10
193.973
 20
94.4553
 30
0.0
 40
0.5
 41
0.5
  0
VERTEX
  8
0
 10
193.815
 20
93.9575
 30
0.0
 40
0.5
 41
0.5
  0
VERTEX
  8
0
 10
193.977
 20
93.4875
 30
0.0
 40
0.5
 41
0.5
  0
VERTEX
  8
0
 10
194.351
 20
93.2974
 30
0.0
 40
0.5
 41
0.5
  0
VERTEX
  8
0
 10
194.819
 20
93.4795
 30
0.0
 40
0.5
 41
0.5
  0
VERTEX
  8
0
 10
194.979
 20
93.9895
 30
0.0
 40
0.5
 41
0.5
  0
VERTEX
  8
0
 10
194.979
 20
93.9934
 30
0.0
 40
0.5
 41
0.5
  0
SEQEND
  8
0
  0
POLYLINE
8
0
 62
     0
 66
     1
 10
0
 20
0
 30
0.0
 70
     1
 40
0.5
 41
0.5
  0
VERTEX
  8
0
 10
196.146
 20
94.8774
 30
0.0
 40
0.5
 41
0.5
  0
VERTEX
  8
0
 10
196.146
 20
94.6255
 30
0.0
 40
0.5
 41
0.5
  0
VERTEX
  8
0
 10
196.258
 20
94.7314
 30
0.0
 40
0.5
 41
0.5
  0
VERTEX
  8
0
 10
196.354
 20
94.8135
 30
0.0
 40
0.5
 41
0.5
  0
VERTEX
  8
0
 10
196.512
 20
94.8914
 30
0.0
 40
0.5
 41
0.5
  0
VERTEX
  8
0
 10
196.742
 20
94.9333
 30
0.0
 40
0.5
 41
0.5
  0
VERTEX
  8
0
 10
196.83
 20
94.9294
 30
0.0
 40
0.5
 41
0.5
  0
VERTEX
  8
0
 10
196.922
 20
94.9133
 30
0.0
 40
0.5
 41
0.5
  0
VERTEX
  8
0
 10
197.254
 20
94.7214
 30
0.0
 40
0.5
 41
0.5
  0
VERTEX
  8
0
 10
197.406
 20
94.2734
 30
0.0
 40
0.5
 41
0.5
  0
VERTEX
  8
0
 10
197.406
 20
93.0173
 30
0.0
 40
0.5
 41
0.5
  0
VERTEX
  8
0
 10
197.026
 20
93.0173
 30
0.0
 40
0.5
 41
0.5
  0
VERTEX
  8
0
 10
197.026
 20
94.2773
 30
0.0
 40
0.5
 41
0.5
  0
VERTEX
  8
0
 10
196.922
 20
94.5054
 30
0.0
 40
0.5
 41
0.5
  0
VERTEX
  8
0
 10
196.69
 20
94.6135
 30
0.0
 40
0.5
 41
0.5
  0
VERTEX
  8
0
 10
196.654
 20
94.6194
 30
0.0
 40
0.5
 41
0.5
  0
VERTEX
  8
0
 10
196.618
 20
94.6213
 30
0.0
 40
0.5
 41
0.5
  0
VERTEX
  8
0
 10
196.612
 20
94.6213
 30
0.0
 40
0.5
 41
0.5
  0
VERTEX
  8
0
 10
196.606
 20
94.6213
 30
0.0
 40
0.5
 41
0.5
  0
VERTEX
  8
0
 10
196.31
 20
94.4895
 30
0.0
 40
0.5
 41
0.5
  0
VERTEX
  8
0
 10
196.174
 20
94.0854
 30
0.0
 40
0.5
 41
0.5
  0
VERTEX
  8
0
 10
196.174
 20
93.0173
 30
0.0
 40
0.5
 41
0.5
  0
VERTEX
  8
0
 10
195.798
 20
93.0173
 30
0.0
 40
0.5
 41
0.5
  0
VERTEX
  8
0
 10
195.798
 20
94.8774
 30
0.0
 40
0.5
 41
0.5
  0
VERTEX
  8
0
 10
196.146
 20
94.8774
 30
0.0
 40
0.5
 41
0.5
  0
SEQEND
  8
0
  0
POLYLINE
8
0
 62
     0
 66
     1
 10
0
 20
0
 30
0.0
 70
     1
 40
0.5
 41
0.5
  0
VERTEX
  8
0
 10
199.232
 20
93.5215
 30
0.0
 40
0.5
 41
0.5
  0
VERTEX
  8
0
 10
199.232
 20
93.0496
 30
0.0
 40
0.5
 41
0.5
  0
VERTEX
  8
0
 10
198.998
 20
92.9653
 30
0.0
 40
0.5
 41
0.5
  0
VERTEX
  8
0
 10
198.744
 20
92.9375
 30
0.0
 40
0.5
 41
0.5
  0
VERTEX
  8
0
 10
198.712
 20
92.9375
 30
0.0
 40
0.5
 41
0.5
  0
VERTEX
  8
0
 10
198.68
 20
92.9375
 30
0.0
 40
0.5
 41
0.5
  0
VERTEX
  8
0
 10
198.02
 20
93.1975
 30
0.0
 40
0.5
 41
0.5
  0
VERTEX
  8
0
 10
197.72
 20
93.9255
 30
0.0
 40
0.5
 41
0.5
  0
VERTEX
  8
0
 10
198.026
 20
94.7053
 30
0.0
 40
0.5
 41
0.5
  0
VERTEX
  8
0
 10
198.72
 20
94.9614
 30
0.0
 40
0.5
 41
0.5
  0
VERTEX
  8
0
 10
198.996
 20
94.9333
 30
0.0
 40
0.5
 41
0.5
  0
VERTEX
  8
0
 10
199.26
 20
94.8416
 30
0.0
 40
0.5
 41
0.5
  0
VERTEX
  8
0
 10
199.26
 20
94.3735
 30
0.0
 40
0.5
 41
0.5
  0
VERTEX
  8
0
 10
199.158
 20
94.4753
 30
0.0
 40
0.5
 41
0.5
  0
VERTEX
  8
0
 10
199.052
 20
94.5454
 30
0.0
 40
0.5
 41
0.5
  0
VERTEX
  8
0
 10
198.842
 20
94.6113
 30
0.0
 40
0.5
 41
0.5
  0
VERTEX
  8
0
 10
198.696
 20
94.6213
 30
0.0
 40
0.5
 41
0.5
  0
VERTEX
  8
0
 10
198.238
 20
94.3955
 30
0.0
 40
0.5
 41
0.5
  0
VERTEX
  8
0
 10
198.08
 20
93.9575
 30
0.0
 40
0.5
 41
0.5
  0
VERTEX
  8
0
 10
198.08
 20
93.9514
 30
0.0
 40
0.5
 41
0.5
  0
VERTEX
  8
0
 10
198.08
 20
93.9456
 30
0.0
 40
0.5
 41
0.5
  0
VERTEX
  8
0
 10
198.23
 20
93.4995
 30
0.0
 40
0.5
 41
0.5
  0
VERTEX
  8
0
 10
198.668
 20
93.2974
 30
0.0
 40
0.5
 41
0.5
  0
VERTEX
  8
0
 10
198.682
 20
93.2974
 30
0.0
 40
0.5
 41
0.5
  0
VERTEX
  8
0
 10
198.696
 20
93.2974
 30
0.0
 40
0.5
 41
0.5
  0
VERTEX
  8
0
 10
198.866
 20
93.3154
 30
0.0
 40
0.5
 41
0.5
  0
VERTEX
  8
0
 10
199.144
 20
93.4456
 30
0.0
 40
0.5
 41
0.5
  0
VERTEX
  8
0
 10
199.19
 20
93.4795
 30
0.0
 40
0.5
 41
0.5
  0
VERTEX
  8
0
 10
199.232
 20
93.5173
 30
0.0
 40
0.5
 41
0.5
  0
VERTEX
  8
0
 10
199.232
 20
93.5215
 30
0.0
 40
0.5
 41
0.5
  0
SEQEND
  8
0
  0
POLYLINE
8
0
 62
     0
 66
     1
 10
0
 20
0
 30
0.0
 70
     1
 40
0.5
 41
0.5
  0
VERTEX
  8
0
 10
200.965
 20
93.6455
 30
0.0
 40
0.5
 41
0.5
  0
VERTEX
  8
0
 10
201.277
 20
93.4895
 30
0.0
 40
0.5
 41
0.5
  0
VERTEX
  8
0
 10
201.231
 20
93.4055
 30
0.0
 40
0.5
 41
0.5
  0
VERTEX
  8
0
 10
201.177
 20
93.3215
 30
0.0
 40
0.5
 41
0.5
  0
VERTEX
  8
0
 10
200.901
 20
93.0674
 30
0.0
 40
0.5
 41
0.5
  0
VERTEX
  8
0
 10
200.397
 20
92.9534
 30
0.0
 40
0.5
 41
0.5
  0
VERTEX
  8
0
 10
199.783
 20
93.2375
 30
0.0
 40
0.5
 41
0.5
  0
VERTEX
  8
0
 10
199.517
 20
93.8655
 30
0.0
 40
0.5
 41
0.5
  0
VERTEX
  8
0
 10
199.515
 20
93.9133
 30
0.0
 40
0.5
 41
0.5
  0
VERTEX
  8
0
 10
199.513
 20
93.9614
 30
0.0
 40
0.5
 41
0.5
  0
VERTEX
  8
0
 10
199.513
 20
93.9915
 30
0.0
 40
0.5
 41
0.5
  0
VERTEX
  8
0
 10
199.513
 20
94.0215
 30
0.0
 40
0.5
 41
0.5
  0
VERTEX
  8
0
 10
199.759
 20
94.6995
 30
0.0
 40
0.5
 41
0.5
  0
VERTEX
  8
0
 10
200.429
 20
94.9976
 30
0.0
 40
0.5
 41
0.5
  0
VERTEX
  8
0
 10
201.011
 20
94.7795
 30
0.0
 40
0.5
 41
0.5
  0
VERTEX
  8
0
 10
201.273
 20
94.3015
 30
0.0
 40
0.5
 41
0.5
  0
VERTEX
  8
0
 10
201.303
 20
94.1394
 30
0.0
 40
0.5
 41
0.5
  0
VERTEX
  8
0
 10
201.313
 20
93.9854
 30
0.0
 40
0.5
 41
0.5
  0
VERTEX
  8
0
 10
201.313
 20
93.9375
 30
0.0
 40
0.5
 41
0.5
  0
VERTEX
  8
0
 10
201.309
 20
93.8936
 30
0.0
 40
0.5
 41
0.5
  0
VERTEX
  8
0
 10
199.893
 20
93.8975
 30
0.0
 40
0.5
 41
0.5
  0
VERTEX
  8
0
 10
200.059
 20
93.4675
 30
0.0
 40
0.5
 41
0.5
  0
VERTEX
  8
0
 10
200.461
 20
93.2974
 30
0.0
 40
0.5
 41
0.5
  0
VERTEX
  8
0
 10
200.519
 20
93.3015
 30
0.0
 40
0.5
 41
0.5
  0
VERTEX
  8
0
 10
200.581
 20
93.3135
 30
0.0
 40
0.5
 41
0.5
  0
VERTEX
  8
0
 10
200.803
 20
93.4255
 30
0.0
 40
0.5
 41
0.5
  0
VERTEX
  8
0
 10
200.965
 20
93.6414
 30
0.0
 40
0.5
 41
0.5
  0
VERTEX
  8
0
 10
200.965
 20
93.6455
 30
0.0
 40
0.5
 41
0.5
  0
SEQEND
  8
0
  0
POLYLINE
8
0
 62
     0
 66
     1
 10
0
 20
0
 30
0.0
 70
     1
 40
0.5
 41
0.5
  0
VERTEX
  8
0
 10
200.933
 20
94.1814
 30
0.0
 40
0.5
 41
0.5
  0
VERTEX
  8
0
 10
200.775
 20
94.5354
 30
0.0
 40
0.5
 41
0.5
  0
VERTEX
  8
0
 10
200.429
 20
94.6814
 30
0.0
 40
0.5
 41
0.5
  0
VERTEX
  8
0
 10
200.337
 20
94.6714
 30
0.0
 40
0.5
 41
0.5
  0
VERTEX
  8
0
 10
200.241
 20
94.6414
 30
0.0
 40
0.5
 41
0.5
  0
VERTEX
  8
0
 10
200.025
 20
94.4875
 30
0.0
 40
0.5
 41
0.5
  0
VERTEX
  8
0
 10
199.893
 20
94.1775
 30
0.0
 40
0.5
 41
0.5
  0
VERTEX
  8
0
 10
200.933
 20
94.1814
 30
0.0
 40
0.5
 41
0.5
  0
SEQEND
  8
0
  0
POLYLINE
8
0
 62
     0
 66
     1
 10
0
 20
0
 30
0.0
 70
     1
 40
0.5
 41
0.5
  0
VERTEX
  8
0
 10
318.092
 20
102.231
 30
0.0
 40
0.5
 41
0.5
  0
VERTEX
  8
0
 10
317.144
 20
100.307
 30
0.0
 40
0.5
 41
0.5
  0
VERTEX
  8
0
 10
316.2
 20
102.231
 30
0.0
 40
0.5
 41
0.5
  0
VERTEX
  8
0
 10
316.612
 20
102.231
 30
0.0
 40
0.5
 41
0.5
  0
VERTEX
  8
0
 10
317.144
 20
101.063
 30
0.0
 40
0.5
 41
0.5
  0
VERTEX
  8
0
 10
317.68
 20
102.231
 30
0.0
 40
0.5
 41
0.5
  0
VERTEX
  8
0
 10
318.092
 20
102.231
 30
0.0
 40
0.5
 41
0.5
  0
SEQEND
  8
0
  0
POLYLINE
8
0
 62
     0
 66
     1
 10
0
 20
0
 30
0.0
 70
     1
 40
0.5
 41
0.5
  0
VERTEX
  8
0
 10
318.157
 20
101.347
 30
0.0
 40
0.5
 41
0.5
  0
VERTEX
  8
0
 10
318.159
 20
101.417
 30
0.0
 40
0.5
 41
0.5
  0
VERTEX
  8
0
 10
318.169
 20
101.495
 30
0.0
 40
0.5
 41
0.5
  0
VERTEX
  8
0
 10
318.459
 20
102.039
 30
0.0
 40
0.5
 41
0.5
  0
VERTEX
  8
0
 10
319.165
 20
102.287
 30
0.0
 40
0.5
 41
0.5
  0
VERTEX
  8
0
 10
319.335
 20
102.275
 30
0.0
 40
0.5
 41
0.5
  0
VERTEX
  8
0
 10
319.521
 20
102.235
 30
0.0
 40
0.5
 41
0.5
  0
VERTEX
  8
0
 10
319.957
 20
101.971
 30
0.0
 40
0.5
 41
0.5
  0
VERTEX
  8
0
 10
320.173
 20
101.407
 30
0.0
 40
0.5
 41
0.5
  0
VERTEX
  8
0
 10
320.173
 20
101.395
 30
0.0
 40
0.5
 41
0.5
  0
VERTEX
  8
0
 10
320.173
 20
101.383
 30
0.0
 40
0.5
 41
0.5
  0
VERTEX
  8
0
 10
320.173
 20
101.369
 30
0.0
 40
0.5
 41
0.5
  0
VERTEX
  8
0
 10
320.173
 20
101.355
 30
0.0
 40
0.5
 41
0.5
  0
VERTEX
  8
0
 10
320.167
 20
101.255
 30
0.0
 40
0.5
 41
0.5
  0
VERTEX
  8
0
 10
320.153
 20
101.155
 30
0.0
 40
0.5
 41
0.5
  0
VERTEX
  8
0
 10
319.841
 20
100.593
 30
0.0
 40
0.5
 41
0.5
  0
VERTEX
  8
0
 10
319.165
 20
100.339
 30
0.0
 40
0.5
 41
0.5
  0
VERTEX
  8
0
 10
318.501
 20
100.527
 30
0.0
 40
0.5
 41
0.5
  0
VERTEX
  8
0
 10
318.217
 20
100.943
 30
0.0
 40
0.5
 41
0.5
  0
VERTEX
  8
0
 10
318.169
 20
101.155
 30
0.0
 40
0.5
 41
0.5
  0
VERTEX
  8
0
 10
318.157
 20
101.343
 30
0.0
 40
0.5
 41
0.5
  0
VERTEX
  8
0
 10
318.157
 20
101.347
 30
0.0
 40
0.5
 41
0.5
  0
SEQEND
  8
0
  0
POLYLINE
8
0
 62
     0
 66
     1
 10
0
 20
0
 30
0.0
 70
     1
 40
0.5
 41
0.5
  0
VERTEX
  8
0
 10
319.793
 20
101.379
 30
0.0
 40
0.5
 41
0.5
  0
VERTEX
  8
0
 10
319.777
 20
101.455
 30
0.0
 40
0.5
 41
0.5
  0
VERTEX
  8
0
 10
319.697
 20
101.659
 30
0.0
 40
0.5
 41
0.5
  0
VERTEX
  8
0
 10
319.507
 20
101.855
 30
0.0
 40
0.5
 41
0.5
  0
VERTEX
  8
0
 10
319.165
 20
101.943
 30
0.0
 40
0.5
 41
0.5
  0
VERTEX
  8
0
 10
318.671
 20
101.745
 30
0.0
 40
0.5
 41
0.5
  0
VERTEX
  8
0
 10
318.533
 20
101.311
 30
0.0
 40
0.5
 41
0.5
  0
VERTEX
  8
0
 10
318.707
 20
100.891
 30
0.0
 40
0.5
 41
0.5
  0
VERTEX
  8
0
 10
319.041
 20
100.703
 30
0.0
 40
0.5
 41
0.5
  0
VERTEX
  8
0
 10
319.117
 20
100.687
 30
0.0
 40
0.5
 41
0.5
  0
VERTEX
  8
0
 10
319.193
 20
100.683
 30
0.0
 40
0.5
 41
0.5
  0
VERTEX
  8
0
 10
319.603
 20
100.859
 30
0.0
 40
0.5
 41
0.5
  0
VERTEX
  8
0
 10
319.793
 20
101.247
 30
0.0
 40
0.5
 41
0.5
  0
VERTEX
  8
0
 10
319.795
 20
101.285
 30
0.0
 40
0.5
 41
0.5
  0
VERTEX
  8
0
 10
319.797
 20
101.319
 30
0.0
 40
0.5
 41
0.5
  0
VERTEX
  8
0
 10
319.797
 20
101.333
 30
0.0
 40
0.5
 41
0.5
  0
VERTEX
  8
0
 10
319.797
 20
101.347
 30
0.0
 40
0.5
 41
0.5
  0
VERTEX
  8
0
 10
319.793
 20
101.361
 30
0.0
 40
0.5
 41
0.5
  0
VERTEX
  8
0
 10
319.793
 20
101.375
 30
0.0
 40
0.5
 41
0.5
  0
VERTEX
  8
0
 10
319.793
 20
101.379
 30
0.0
 40
0.5
 41
0.5
  0
SEQEND
  8
0
  0
POLYLINE
8
0
 62
     0
 66
     1
 10
0
 20
0
 30
0.0
 70
     1
 40
0.5
 41
0.5
  0
VERTEX
  8
0
 10
320.893
 20
103.835
 30
0.0
 40
0.5
 41
0.5
  0
VERTEX
  8
0
 10
320.893
 20
100.371
 30
0.0
 40
0.5
 41
0.5
  0
VERTEX
  8
0
 10
320.517
 20
100.371
 30
0.0
 40
0.5
 41
0.5
  0
VERTEX
  8
0
 10
320.517
 20
103.835
 30
0.0
 40
0.5
 41
0.5
  0
VERTEX
  8
0
 10
320.893
 20
103.835
 30
0.0
 40
0.5
 41
0.5
  0
SEQEND
  8
0
  0
POLYLINE
8
0
 62
     0
 66
     1
 10
0
 20
0
 30
0.0
 70
     1
 40
0.5
 41
0.5
  0
VERTEX
  8
0
 10
322.938
 20
102.231
 30
0.0
 40
0.5
 41
0.5
  0
VERTEX
  8
0
 10
322.938
 20
101.159
 30
0.0
 40
0.5
 41
0.5
  0
VERTEX
  8
0
 10
322.938
 20
101.149
 30
0.0
 40
0.5
 41
0.5
  0
VERTEX
  8
0
 10
322.938
 20
101.143
 30
0.0
 40
0.5
 41
0.5
  0
VERTEX
  8
0
 10
322.754
 20
100.545
 30
0.0
 40
0.5
 41
0.5
  0
VERTEX
  8
0
 10
322.15
 20
100.275
 30
0.0
 40
0.5
 41
0.5
  0
VERTEX
  8
0
 10
321.576
 20
100.483
 30
0.0
 40
0.5
 41
0.5
  0
VERTEX
  8
0
 10
321.33
 20
101.091
 30
0.0
 40
0.5
 41
0.5
  0
VERTEX
  8
0
 10
321.33
 20
102.231
 30
0.0
 40
0.5
 41
0.5
  0
VERTEX
  8
0
 10
321.71
 20
102.231
 30
0.0
 40
0.5
 41
0.5
  0
VERTEX
  8
0
 10
321.71
 20
101.191
 30
0.0
 40
0.5
 41
0.5
  0
VERTEX
  8
0
 10
321.716
 20
101.093
 30
0.0
 40
0.5
 41
0.5
  0
VERTEX
  8
0
 10
321.734
 20
100.991
 30
0.0
 40
0.5
 41
0.5
  0
VERTEX
  8
0
 10
321.862
 20
100.735
 30
0.0
 40
0.5
 41
0.5
  0
VERTEX
  8
0
 10
322.15
 20
100.619
 30
0.0
 40
0.5
 41
0.5
  0
VERTEX
  8
0
 10
322.472
 20
100.769
 30
0.0
 40
0.5
 41
0.5
  0
VERTEX
  8
0
 10
322.558
 20
101.155
 30
0.0
 40
0.5
 41
0.5
  0
VERTEX
  8
0
 10
322.558
 20
102.231
 30
0.0
 40
0.5
 41
0.5
  0
VERTEX
  8
0
 10
322.938
 20
102.231
 30
0.0
 40
0.5
 41
0.5
  0
SEQEND
  8
0
  0
POLYLINE
8
0
 62
     0
 66
     1
 10
0
 20
0
 30
0.0
 70
     1
 40
0.5
 41
0.5
  0
VERTEX
  8
0
 10
323.725
 20
102.039
 30
0.0
 40
0.5
 41
0.5
  0
VERTEX
  8
0
 10
323.757
 20
102.091
 30
0.0
 40
0.5
 41
0.5
  0
VERTEX
  8
0
 10
323.821
 20
102.167
 30
0.0
 40
0.5
 41
0.5
  0
VERTEX
  8
0
 10
323.979
 20
102.271
 30
0.0
 40
0.5
 41
0.5
  0
VERTEX
  8
0
 10
324.229
 20
102.319
 30
0.0
 40
0.5
 41
0.5
  0
VERTEX
  8
0
 10
324.303
 20
102.315
 30
0.0
 40
0.5
 41
0.5
  0
VERTEX
  8
0
 10
324.377
 20
102.303
 30
0.0
 40
0.5
 41
0.5
  0
VERTEX
  8
0
 10
324.591
 20
102.205
 30
0.0
 40
0.5
 41
0.5
  0
VERTEX
  8
0
 10
324.765
 20
101.975
 30
0.0
 40
0.5
 41
0.5
  0
VERTEX
  8
0
 10
324.799
 20
102.025
 30
0.0
 40
0.5
 41
0.5
  0
VERTEX
  8
0
 10
324.837
 20
102.075
 30
0.0
 40
0.5
 41
0.5
  0
VERTEX
  8
0
 10
325.045
 20
102.243
 30
0.0
 40
0.5
 41
0.5
  0
VERTEX
  8
0
 10
325.353
 20
102.323
 30
0.0
 40
0.5
 41
0.5
  0
VERTEX
  8
0
 10
325.391
 20
102.323
 30
0.0
 40
0.5
 41
0.5
  0
VERTEX
  8
0
 10
325.425
 20
102.319
 30
0.0
 40
0.5
 41
0.5
  0
VERTEX
  8
0
 10
325.859
 20
102.063
 30
0.0
 40
0.5
 41
0.5
  0
VERTEX
  8
0
 10
325.961
 20
101.499
 30
0.0
 40
0.5
 41
0.5
  0
VERTEX
  8
0
 10
325.961
 20
100.371
 30
0.0
 40
0.5
 41
0.5
  0
VERTEX
  8
0
 10
325.613
 20
100.371
 30
0.0
 40
0.5
 41
0.5
  0
VERTEX
  8
0
 10
325.613
 20
101.503
 30
0.0
 40
0.5
 41
0.5
  0
VERTEX
  8
0
 10
325.535
 20
101.843
 30
0.0
 40
0.5
 41
0.5
  0
VERTEX
  8
0
 10
325.269
 20
101.975
 30
0.0
 40
0.5
 41
0.5
  0
VERTEX
  8
0
 10
324.969
 20
101.865
 30
0.0
 40
0.5
 41
0.5
  0
VERTEX
  8
0
 10
324.857
 20
101.471
 30
0.0
 40
0.5
 41
0.5
  0
VERTEX
  8
0
 10
324.857
 20
100.371
 30
0.0
 40
0.5
 41
0.5
  0
VERTEX
  8
0
 10
324.481
 20
100.371
 30
0.0
 40
0.5
 41
0.5
  0
VERTEX
  8
0
 10
324.481
 20
101.567
 30
0.0
 40
0.5
 41
0.5
  0
VERTEX
  8
0
 10
324.395
 20
101.855
 30
0.0
 40
0.5
 41
0.5
  0
VERTEX
  8
0
 10
324.209
 20
101.967
 30
0.0
 40
0.5
 41
0.5
  0
VERTEX
  8
0
 10
324.171
 20
101.973
 30
0.0
 40
0.5
 41
0.5
  0
VERTEX
  8
0
 10
324.133
 20
101.975
 30
0.0
 40
0.5
 41
0.5
  0
VERTEX
  8
0
 10
324.097
 20
101.975
 30
0.0
 40
0.5
 41
0.5
  0
VERTEX
  8
0
 10
324.061
 20
101.971
 30
0.0
 40
0.5
 41
0.5
  0
VERTEX
  8
0
 10
323.829
 20
101.863
 30
0.0
 40
0.5
 41
0.5
  0
VERTEX
  8
0
 10
323.725
 20
101.499
 30
0.0
 40
0.5
 41
0.5
  0
VERTEX
  8
0
 10
323.725
 20
100.371
 30
0.0
 40
0.5
 41
0.5
  0
VERTEX
  8
0
 10
323.345
 20
100.371
 30
0.0
 40
0.5
 41
0.5
  0
VERTEX
  8
0
 10
323.345
 20
102.231
 30
0.0
 40
0.5
 41
0.5
  0
VERTEX
  8
0
 10
323.725
 20
102.231
 30
0.0
 40
0.5
 41
0.5
  0
VERTEX
  8
0
 10
323.725
 20
102.039
 30
0.0
 40
0.5
 41
0.5
  0
SEQEND
  8
0
  0
POLYLINE
8
0
 62
     0
 66
     1
 10
0
 20
0
 30
0.0
 70
     1
 40
0.5
 41
0.5
  0
VERTEX
  8
0
 10
327.783
 20
100.999
 30
0.0
 40
0.5
 41
0.5
  0
VERTEX
  8
0
 10
328.095
 20
100.843
 30
0.0
 40
0.5
 41
0.5
  0
VERTEX
  8
0
 10
328.049
 20
100.759
 30
0.0
 40
0.5
 41
0.5
  0
VERTEX
  8
0
 10
327.995
 20
100.675
 30
0.0
 40
0.5
 41
0.5
  0
VERTEX
  8
0
 10
327.719
 20
100.421
 30
0.0
 40
0.5
 41
0.5
  0
VERTEX
  8
0
 10
327.215
 20
100.307
 30
0.0
 40
0.5
 41
0.5
  0
VERTEX
  8
0
 10
326.601
 20
100.591
 30
0.0
 40
0.5
 41
0.5
  0
VERTEX
  8
0
 10
326.335
 20
101.219
 30
0.0
 40
0.5
 41
0.5
  0
VERTEX
  8
0
 10
326.333
 20
101.267
 30
0.0
 40
0.5
 41
0.5
  0
VERTEX
  8
0
 10
326.331
 20
101.315
 30
0.0
 40
0.5
 41
0.5
  0
VERTEX
  8
0
 10
326.331
 20
101.345
 30
0.0
 40
0.5
 41
0.5
  0
VERTEX
  8
0
 10
326.331
 20
101.375
 30
0.0
 40
0.5
 41
0.5
  0
VERTEX
  8
0
 10
326.577
 20
102.053
 30
0.0
 40
0.5
 41
0.5
  0
VERTEX
  8
0
 10
327.247
 20
102.351
 30
0.0
 40
0.5
 41
0.5
  0
VERTEX
  8
0
 10
327.829
 20
102.133
 30
0.0
 40
0.5
 41
0.5
  0
VERTEX
  8
0
 10
328.091
 20
101.655
 30
0.0
 40
0.5
 41
0.5
  0
VERTEX
  8
0
 10
328.121
 20
101.493
 30
0.0
 40
0.5
 41
0.5
  0
VERTEX
  8
0
 10
328.131
 20
101.339
 30
0.0
 40
0.5
 41
0.5
  0
VERTEX
  8
0
 10
328.131
 20
101.291
 30
0.0
 40
0.5
 41
0.5
  0
VERTEX
  8
0
 10
328.127
 20
101.247
 30
0.0
 40
0.5
 41
0.5
  0
VERTEX
  8
0
 10
326.711
 20
101.251
 30
0.0
 40
0.5
 41
0.5
  0
VERTEX
  8
0
 10
326.877
 20
100.821
 30
0.0
 40
0.5
 41
0.5
  0
VERTEX
  8
0
 10
327.279
 20
100.651
 30
0.0
 40
0.5
 41
0.5
  0
VERTEX
  8
0
 10
327.337
 20
100.655
 30
0.0
 40
0.5
 41
0.5
  0
VERTEX
  8
0
 10
327.399
 20
100.667
 30
0.0
 40
0.5
 41
0.5
  0
VERTEX
  8
0
 10
327.621
 20
100.779
 30
0.0
 40
0.5
 41
0.5
  0
VERTEX
  8
0
 10
327.783
 20
100.995
 30
0.0
 40
0.5
 41
0.5
  0
VERTEX
  8
0
 10
327.783
 20
100.999
 30
0.0
 40
0.5
 41
0.5
  0
SEQEND
  8
0
  0
POLYLINE
8
0
 62
     0
 66
     1
 10
0
 20
0
 30
0.0
 70
     1
 40
0.5
 41
0.5
  0
VERTEX
  8
0
 10
327.751
 20
101.535
 30
0.0
 40
0.5
 41
0.5
  0
VERTEX
  8
0
 10
327.593
 20
101.889
 30
0.0
 40
0.5
 41
0.5
  0
VERTEX
  8
0
 10
327.247
 20
102.035
 30
0.0
 40
0.5
 41
0.5
  0
VERTEX
  8
0
 10
327.155
 20
102.025
 30
0.0
 40
0.5
 41
0.5
  0
VERTEX
  8
0
 10
327.059
 20
101.995
 30
0.0
 40
0.5
 41
0.5
  0
VERTEX
  8
0
 10
326.843
 20
101.841
 30
0.0
 40
0.5
 41
0.5
  0
VERTEX
  8
0
 10
326.711
 20
101.531
 30
0.0
 40
0.5
 41
0.5
  0
VERTEX
  8
0
 10
327.751
 20
101.535
 30
0.0
 40
0.5
 41
0.5
  0
SEQEND
  8
0
  0
POLYLINE
8
0
 62
     0
 66
     1
 10
0
 20
0
 30
0.0
 70
     1
 40
0.5
 41
0.5
  0
VERTEX
  8
0
 10
65.1523
 20
102.781
 30
0.0
 40
0.5
 41
0.5
  0
VERTEX
  8
0
 10
81.7288
 20
102.781
 30
0.0
 40
0.5
 41
0.5
  0
VERTEX
  8
0
 10
81.7288
 20
84.2192
 30
0.0
 40
0.5
 41
0.5
  0
VERTEX
  8
0
 10
65.1523
 20
84.2192
 30
0.0
 40
0.5
 41
0.5
  0
VERTEX
  8
0
 10
65.1523
 20
102.781
 30
0.0
 40
0.5
 41
0.5
  0
SEQEND
  8
0
  0
POLYLINE
8
0
 62
     0
 66
     1
 10
0
 20
0
 30
0.0
 70
     1
 40
0.5
 41
0.5
  0
VERTEX
  8
0
 10
74.7236
 20
88.7112
 30
0.0
 40
0.5
 41
0.5
  0
VERTEX
  8
0
 10
74.4143
 20
89.1204
 30
0.0
 40
0.5
 41
0.5
  0
VERTEX
  8
0
 10
74.5317
 20
89.249
 30
0.0
 40
0.5
 41
0.5
  0
VERTEX
  8
0
 10
74.3958
 20
89.3171
 30
0.0
 40
0.5
 41
0.5
  0
VERTEX
  8
0
 10
74.1489
 20
89.1113
 30
0.0
 40
0.5
 41
0.5
  0
VERTEX
  8
0
 10
74.3894
 20
89.0344
 30
0.0
 40
0.5
 41
0.5
  0
VERTEX
  8
0
 10
74.4094
 20
88.584
 30
0.0
 40
0.5
 41
0.5
  0
VERTEX
  8
0
 10
74.6013
 20
88.7004
 30
0.0
 40
0.5
 41
0.5
  0
VERTEX
  8
0
 10
74.7236
 20
88.7112
 30
0.0
 40
0.5
 41
0.5
  0
SEQEND
  8
0
  0
POLYLINE
8
0
 62
     0
 66
     1
 10
0
 20
0
 30
0.0
 70
     1
 40
0.5
 41
0.5
  0
VERTEX
  8
0
 10
75.0237
 20
93.532
 30
0.0
 40
0.5
 41
0.5
  0
VERTEX
  8
0
 10
75.1355
 20
93.4153
 30
0.0
 40
0.5
 41
0.5
  0
VERTEX
  8
0
 10
75.3535
 20
93.9944
 30
0.0
 40
0.5
 41
0.5
  0
VERTEX
  8
0
 10
74.9565
 20
94.6743
 30
0.0
 40
0.5
 41
0.5
  0
VERTEX
  8
0
 10
74.7358
 20
94.4849
 30
0.0
 40
0.5
 41
0.5
  0
VERTEX
  8
0
 10
74.8655
 20
94.4773
 30
0.0
 40
0.5
 41
0.5
  0
VERTEX
  8
0
 10
75.0325
 20
93.9648
 30
0.0
 40
0.5
 41
0.5
  0
VERTEX
  8
0
 10
75.1953
 20
93.677
 30
0.0
 40
0.5
 41
0.5
  0
VERTEX
  8
0
 10
75.0237
 20
93.532
 30
0.0
 40
0.5
 41
0.5
  0
SEQEND
  8
0
  0
POLYLINE
8
0
 62
     0
 66
     1
 10
0
 20
0
 30
0.0
 70
     1
 40
0.5
 41
0.5
  0
VERTEX
  8
0
 10
74.7065
 20
93.9353
 30
0.0
 40
0.5
 41
0.5
  0
VERTEX
  8
0
 10
74.1824
 20
94.0244
 30
0.0
 40
0.5
 41
0.5
  0
VERTEX
  8
0
 10
74.1238
 20
94.1448
 30
0.0
 40
0.5
 41
0.5
  0
VERTEX
  8
0
 10
73.5117
 20
94.0088
 30
0.0
 40
0.5
 41
0.5
  0
VERTEX
  8
0
 10
73.7756
 20
93.6375
 30
0.0
 40
0.5
 41
0.5
  0
VERTEX
  8
0
 10
74.2161
 20
93.6318
 30
0.0
 40
0.5
 41
0.5
  0
VERTEX
  8
0
 10
74.5354
 20
93.7122
 30
0.0
 40
0.5
 41
0.5
  0
VERTEX
  8
0
 10
74.7065
 20
93.9353
 30
0.0
 40
0.5
 41
0.5
  0
SEQEND
  8
0
  0
POLYLINE
8
0
 62
     0
 66
     1
 10
0
 20
0
 30
0.0
 70
     1
 40
0.5
 41
0.5
  0
VERTEX
  8
0
 10
72.7639
 20
93.6689
 30
0.0
 40
0.5
 41
0.5
  0
VERTEX
  8
0
 10
72.4238
 20
93.6008
 30
0.0
 40
0.5
 41
0.5
  0
VERTEX
  8
0
 10
72.5601
 20
92.989
 30
0.0
 40
0.5
 41
0.5
  0
VERTEX
  8
0
 10
72.77
 20
93.269
 30
0.0
 40
0.5
 41
0.5
  0
VERTEX
  8
0
 10
72.7639
 20
93.6689
 30
0.0
 40
0.5
 41
0.5
  0
SEQEND
  8
0
  0
POLYLINE
8
0
 62
     0
 66
     1
 10
0
 20
0
 30
0.0
 70
     1
 40
0.5
 41
0.5
  0
VERTEX
  8
0
 10
70.1746
 20
92.5222
 30
0.0
 40
0.5
 41
0.5
  0
VERTEX
  8
0
 10
70.1121
 20
92.5811
 30
0.0
 40
0.5
 41
0.5
  0
VERTEX
  8
0
 10
70.1174
 20
92.248
 30
0.0
 40
0.5
 41
0.5
  0
VERTEX
  8
0
 10
70.2505
 20
92.2949
 30
0.0
 40
0.5
 41
0.5
  0
VERTEX
  8
0
 10
70.3159
 20
92.1729
 30
0.0
 40
0.5
 41
0.5
  0
VERTEX
  8
0
 10
71.0037
 20
92.4636
 30
0.0
 40
0.5
 41
0.5
  0
VERTEX
  8
0
 10
71.676
 20
92.5129
 30
0.0
 40
0.5
 41
0.5
  0
VERTEX
  8
0
 10
71.6223
 20
93.0269
 30
0.0
 40
0.5
 41
0.5
  0
VERTEX
  8
0
 10
72.0159
 20
92.853
 30
0.0
 40
0.5
 41
0.5
  0
VERTEX
  8
0
 10
72.084
 20
93.533
 30
0.0
 40
0.5
 41
0.5
  0
VERTEX
  8
0
 10
71.3921
 20
94.0681
 30
0.0
 40
0.5
 41
0.5
  0
VERTEX
  8
0
 10
71.2729
 20
94.0071
 30
0.0
 40
0.5
 41
0.5
  0
VERTEX
  8
0
 10
71.457
 20
93.7371
 30
0.0
 40
0.5
 41
0.5
  0
VERTEX
  8
0
 10
71.333
 20
93.6062
 30
0.0
 40
0.5
 41
0.5
  0
VERTEX
  8
0
 10
71.1353
 20
93.729
 30
0.0
 40
0.5
 41
0.5
  0
VERTEX
  8
0
 10
71.0032
 20
93.6191
 30
0.0
 40
0.5
 41
0.5
  0
VERTEX
  8
0
 10
70.5276
 20
93.5093
 30
0.0
 40
0.5
 41
0.5
  0
VERTEX
  8
0
 10
70.2271
 20
93.0732
 30
0.0
 40
0.5
 41
0.5
  0
VERTEX
  8
0
 10
70.1746
 20
92.5222
 30
0.0
 40
0.5
 41
0.5
  0
SEQEND
  8
0
  0
POLYLINE
8
0
 62
     0
 66
     1
 10
0
 20
0
 30
0.0
 70
     1
 40
0.5
 41
0.5
  0
VERTEX
  8
0
 10
72.5779
 20
94.6057
 30
0.0
 40
0.5
 41
0.5
  0
VERTEX
  8
0
 10
72.8203
 20
94.7629
 30
0.0
 40
0.5
 41
0.5
  0
VERTEX
  8
0
 10
72.7629
 20
94.958
 30
0.0
 40
0.5
 41
0.5
  0
VERTEX
  8
0
 10
72.4448
 20
94.8774
 30
0.0
 40
0.5
 41
0.5
  0
VERTEX
  8
0
 10
72.5044
 20
94.8928
 30
0.0
 40
0.5
 41
0.5
  0
VERTEX
  8
0
 10
72.5435
 20
94.8335
 30
0.0
 40
0.5
 41
0.5
  0
VERTEX
  8
0
 10
71.7036
 20
94.1299
 30
0.0
 40
0.5
 41
0.5
  0
VERTEX
  8
0
 10
71.8799
 20
93.9409
 30
0.0
 40
0.5
 41
0.5
  0
VERTEX
  8
0
 10
71.8848
 20
94.0752
 30
0.0
 40
0.5
 41
0.5
  0
VERTEX
  8
0
 10
72.0156
 20
94.1521
 30
0.0
 40
0.5
 41
0.5
  0
VERTEX
  8
0
 10
72.5779
 20
94.6057
 30
0.0
 40
0.5
 41
0.5
  0
SEQEND
  8
0
  0
POLYLINE
8
0
 62
     0
 66
     1
 10
0
 20
0
 30
0.0
 70
     1
 40
0.5
 41
0.5
  0
VERTEX
  8
0
 10
69.3438
 20
93.5745
 30
0.0
 40
0.5
 41
0.5
  0
VERTEX
  8
0
 10
69.6084
 20
93.9841
 30
0.0
 40
0.5
 41
0.5
  0
VERTEX
  8
0
 10
69.6665
 20
94.5479
 30
0.0
 40
0.5
 41
0.5
  0
VERTEX
  8
0
 10
70.009
 20
94.5693
 30
0.0
 40
0.5
 41
0.5
  0
VERTEX
  8
0
 10
70.6243
 20
95.0874
 30
0.0
 40
0.5
 41
0.5
  0
VERTEX
  8
0
 10
70.52
 20
95.4368
 30
0.0
 40
0.5
 41
0.5
  0
VERTEX
  8
0
 10
70.3159
 20
95.5728
 30
0.0
 40
0.5
 41
0.5
  0
VERTEX
  8
0
 10
70.5256
 20
95.9568
 30
0.0
 40
0.5
 41
0.5
  0
VERTEX
  8
0
 10
70.792
 20
95.4368
 30
0.0
 40
0.5
 41
0.5
  0
VERTEX
  8
0
 10
70.928
 20
95.5049
 30
0.0
 40
0.5
 41
0.5
  0
VERTEX
  8
0
 10
70.9905
 20
95.1155
 30
0.0
 40
0.5
 41
0.5
  0
VERTEX
  8
0
 10
70.792
 20
95.2329
 30
0.0
 40
0.5
 41
0.5
  0
VERTEX
  8
0
 10
71.2188
 20
94.2217
 30
0.0
 40
0.5
 41
0.5
  0
VERTEX
  8
0
 10
71.4041
 20
94.2129
 30
0.0
 40
0.5
 41
0.5
  0
VERTEX
  8
0
 10
71.54
 20
94.8928
 30
0.0
 40
0.5
 41
0.5
  0
VERTEX
  8
0
 10
71.2097
 20
95.2319
 30
0.0
 40
0.5
 41
0.5
  0
VERTEX
  8
0
 10
71.3284
 20
95.2927
 30
0.0
 40
0.5
 41
0.5
  0
VERTEX
  8
0
 10
71.7112
 20
95.2368
 30
0.0
 40
0.5
 41
0.5
  0
VERTEX
  8
0
 10
71.4197
 20
95.9089
 30
0.0
 40
0.5
 41
0.5
  0
VERTEX
  8
0
 10
71.7439
 20
96.0488
 30
0.0
 40
0.5
 41
0.5
  0
VERTEX
  8
0
 10
71.8132
 20
96.1763
 30
0.0
 40
0.5
 41
0.5
  0
VERTEX
  8
0
 10
72.0994
 20
95.9258
 30
0.0
 40
0.5
 41
0.5
  0
VERTEX
  8
0
 10
72.355
 20
95.6504
 30
0.0
 40
0.5
 41
0.5
  0
VERTEX
  8
0
 10
72.4192
 20
95.7742
 30
0.0
 40
0.5
 41
0.5
  0
VERTEX
  8
0
 10
72.1541
 20
96.1843
 30
0.0
 40
0.5
 41
0.5
  0
VERTEX
  8
0
 10
72.1672
 20
97.0078
 30
0.0
 40
0.5
 41
0.5
  0
VERTEX
  8
0
 10
71.9329
 20
96.8108
 30
0.0
 40
0.5
 41
0.5
  0
VERTEX
  8
0
 10
71.7266
 20
96.3752
 30
0.0
 40
0.5
 41
0.5
  0
VERTEX
  8
0
 10
71.064
 20
96.9326
 30
0.0
 40
0.5
 41
0.5
  0
VERTEX
  8
0
 10
70.4812
 20
96.3025
 30
0.0
 40
0.5
 41
0.5
  0
VERTEX
  8
0
 10
70.0933
 20
95.5842
 30
0.0
 40
0.5
 41
0.5
  0
VERTEX
  8
0
 10
68.9751
 20
94.0623
 30
0.0
 40
0.5
 41
0.5
  0
VERTEX
  8
0
 10
68.9717
 20
93.7451
 30
0.0
 40
0.5
 41
0.5
  0
VERTEX
  8
0
 10
69.3438
 20
93.5745
 30
0.0
 40
0.5
 41
0.5
  0
SEQEND
  8
0
  0
POLYLINE
8
0
 62
     0
 66
     1
 10
0
 20
0
 30
0.0
 70
     1
 40
0.5
 41
0.5
  0
VERTEX
  8
0
 10
73.24
 20
97.2048
 30
0.0
 40
0.5
 41
0.5
  0
VERTEX
  8
0
 10
73.5701
 20
96.7793
 30
0.0
 40
0.5
 41
0.5
  0
VERTEX
  8
0
 10
74.6677
 20
97.0007
 30
0.0
 40
0.5
 41
0.5
  0
VERTEX
  8
0
 10
74.8867
 20
97.4688
 30
0.0
 40
0.5
 41
0.5
  0
VERTEX
  8
0
 10
75.0078
 20
97.4087
 30
0.0
 40
0.5
 41
0.5
  0
VERTEX
  8
0
 10
74.9114
 20
97.6619
 30
0.0
 40
0.5
 41
0.5
  0
VERTEX
  8
0
 10
74.1238
 20
97.5447
 30
0.0
 40
0.5
 41
0.5
  0
VERTEX
  8
0
 10
73.6526
 20
97.5762
 30
0.0
 40
0.5
 41
0.5
  0
VERTEX
  8
0
 10
73.24
 20
97.2048
 30
0.0
 40
0.5
 41
0.5
  0
SEQEND
  8
0
  0
POLYLINE
8
0
 62
     0
 66
     1
 10
0
 20
0
 30
0.0
 70
     1
 40
0.5
 41
0.5
  0
VERTEX
  8
0
 10
70.1511
 20
98.0684
 30
0.0
 40
0.5
 41
0.5
  0
VERTEX
  8
0
 10
69.8401
 20
97.3408
 30
0.0
 40
0.5
 41
0.5
  0
VERTEX
  8
0
 10
69.7053
 20
97.4055
 30
0.0
 40
0.5
 41
0.5
  0
VERTEX
  8
0
 10
69.6423
 20
97.2769
 30
0.0
 40
0.5
 41
0.5
  0
VERTEX
  8
0
 10
69.696
 20
97.1445
 30
0.0
 40
0.5
 41
0.5
  0
VERTEX
  8
0
 10
69.2095
 20
96.7546
 30
0.0
 40
0.5
 41
0.5
  0
VERTEX
  8
0
 10
69.0449
 20
96.2607
 30
0.0
 40
0.5
 41
0.5
  0
VERTEX
  8
0
 10
69.364
 20
96.1167
 30
0.0
 40
0.5
 41
0.5
  0
VERTEX
  8
0
 10
69.5352
 20
96.8137
 30
0.0
 40
0.5
 41
0.5
  0
VERTEX
  8
0
 10
69.8101
 20
97.125
 30
0.0
 40
0.5
 41
0.5
  0
VERTEX
  8
0
 10
70.198
 20
97.3992
 30
0.0
 40
0.5
 41
0.5
  0
VERTEX
  8
0
 10
70.3782
 20
97.4189
 30
0.0
 40
0.5
 41
0.5
  0
VERTEX
  8
0
 10
70.6084
 20
97.6616
 30
0.0
 40
0.5
 41
0.5
  0
VERTEX
  8
0
 10
70.8601
 20
97.6128
 30
0.0
 40
0.5
 41
0.5
  0
VERTEX
  8
0
 10
70.9297
 20
97.7441
 30
0.0
 40
0.5
 41
0.5
  0
VERTEX
  8
0
 10
71.1697
 20
97.55
 30
0.0
 40
0.5
 41
0.5
  0
VERTEX
  8
0
 10
70.656
 20
97.4087
 30
0.0
 40
0.5
 41
0.5
  0
VERTEX
  8
0
 10
70.7256
 20
97.2761
 30
0.0
 40
0.5
 41
0.5
  0
VERTEX
  8
0
 10
71.0632
 20
97.3391
 30
0.0
 40
0.5
 41
0.5
  0
VERTEX
  8
0
 10
71.1438
 20
97.1516
 30
0.0
 40
0.5
 41
0.5
  0
VERTEX
  8
0
 10
71.4041
 20
97.2048
 30
0.0
 40
0.5
 41
0.5
  0
VERTEX
  8
0
 10
71.0728
 20
97.4072
 30
0.0
 40
0.5
 41
0.5
  0
VERTEX
  8
0
 10
71.2678
 20
97.6807
 30
0.0
 40
0.5
 41
0.5
  0
VERTEX
  8
0
 10
71.1411
 20
97.7498
 30
0.0
 40
0.5
 41
0.5
  0
VERTEX
  8
0
 10
71.4639
 20
97.9543
 30
0.0
 40
0.5
 41
0.5
  0
VERTEX
  8
0
 10
71.4502
 20
98.4807
 30
0.0
 40
0.5
 41
0.5
  0
VERTEX
  8
0
 10
71.7332
 20
98.7126
 30
0.0
 40
0.5
 41
0.5
  0
VERTEX
  8
0
 10
71.9543
 20
98.3528
 30
0.0
 40
0.5
 41
0.5
  0
VERTEX
  8
0
 10
71.676
 20
97.8167
 30
0.0
 40
0.5
 41
0.5
  0
VERTEX
  8
0
 10
71.812
 20
97.8848
 30
0.0
 40
0.5
 41
0.5
  0
VERTEX
  8
0
 10
71.9509
 20
97.7537
 30
0.0
 40
0.5
 41
0.5
  0
VERTEX
  8
0
 10
72.0767
 20
97.8184
 30
0.0
 40
0.5
 41
0.5
  0
VERTEX
  8
0
 10
72.0159
 20
98.0208
 30
0.0
 40
0.5
 41
0.5
  0
VERTEX
  8
0
 10
72.332
 20
98.1045
 30
0.0
 40
0.5
 41
0.5
  0
VERTEX
  8
0
 10
72.2437
 20
98.572
 30
0.0
 40
0.5
 41
0.5
  0
VERTEX
  8
0
 10
72.2793
 20
99.1055
 30
0.0
 40
0.5
 41
0.5
  0
VERTEX
  8
0
 10
72.1548
 20
99.2271
 30
0.0
 40
0.5
 41
0.5
  0
VERTEX
  8
0
 10
71.875
 20
98.9094
 30
0.0
 40
0.5
 41
0.5
  0
VERTEX
  8
0
 10
71.6899
 20
98.9653
 30
0.0
 40
0.5
 41
0.5
  0
VERTEX
  8
0
 10
71.6067
 20
98.8457
 30
0.0
 40
0.5
 41
0.5
  0
VERTEX
  8
0
 10
71.3359
 20
98.9045
 30
0.0
 40
0.5
 41
0.5
  0
VERTEX
  8
0
 10
70.8125
 20
98.7395
 30
0.0
 40
0.5
 41
0.5
  0
VERTEX
  8
0
 10
70.1511
 20
98.0684
 30
0.0
 40
0.5
 41
0.5
  0
SEQEND
  8
0
  0
POLYLINE
8
0
 62
     0
 66
     1
 10
0
 20
0
 30
0.0
 70
     1
 40
0.5
 41
0.5
  0
VERTEX
  8
0
 10
74.5999
 20
87.957
 30
0.0
 40
0.5
 41
0.5
  0
VERTEX
  8
0
 10
74.3196
 20
88.3296
 30
0.0
 40
0.5
 41
0.5
  0
VERTEX
  8
0
 10
74.1311
 20
88.0269
 30
0.0
 40
0.5
 41
0.5
  0
VERTEX
  8
0
 10
74.2485
 20
87.9421
 30
0.0
 40
0.5
 41
0.5
  0
VERTEX
  8
0
 10
74.5999
 20
87.957
 30
0.0
 40
0.5
 41
0.5
  0
SEQEND
  8
0
  0
POLYLINE
8
0
 62
     0
 66
     1
 10
0
 20
0
 30
0.0
 70
     1
 40
0.5
 41
0.5
  0
VERTEX
  8
0
 10
70.7241
 20
89.1812
 30
0.0
 40
0.5
 41
0.5
  0
VERTEX
  8
0
 10
70.8525
 20
89.3328
 30
0.0
 40
0.5
 41
0.5
  0
VERTEX
  8
0
 10
70.8054
 20
89.4561
 30
0.0
 40
0.5
 41
0.5
  0
VERTEX
  8
0
 10
70.928
 20
89.7251
 30
0.0
 40
0.5
 41
0.5
  0
VERTEX
  8
0
 10
70.467
 20
89.4897
 30
0.0
 40
0.5
 41
0.5
  0
VERTEX
  8
0
 10
70.5898
 20
89.2515
 30
0.0
 40
0.5
 41
0.5
  0
VERTEX
  8
0
 10
70.7241
 20
89.1812
 30
0.0
 40
0.5
 41
0.5
  0
SEQEND
  8
0
  0
POLYLINE
8
0
 62
     0
 66
     1
 10
0
 20
0
 30
0.0
 70
     1
 40
0.5
 41
0.5
  0
VERTEX
  8
0
 10
73.1228
 20
86.0959
 30
0.0
 40
0.5
 41
0.5
  0
VERTEX
  8
0
 10
73.7412
 20
86.2754
 30
0.0
 40
0.5
 41
0.5
  0
VERTEX
  8
0
 10
73.9268
 20
86.9207
 30
0.0
 40
0.5
 41
0.5
  0
VERTEX
  8
0
 10
73.3203
 20
86.9822
 30
0.0
 40
0.5
 41
0.5
  0
VERTEX
  8
0
 10
72.9353
 20
86.5447
 30
0.0
 40
0.5
 41
0.5
  0
VERTEX
  8
0
 10
73.1228
 20
86.0959
 30
0.0
 40
0.5
 41
0.5
  0
SEQEND
  8
0
  0
POLYLINE
8
0
 62
     0
 66
     1
 10
0
 20
0
 30
0.0
 70
     1
 40
0.5
 41
0.5
  0
VERTEX
  8
0
 10
73.7883
 20
88.0632
 30
0.0
 40
0.5
 41
0.5
  0
VERTEX
  8
0
 10
73.9683
 20
88.3516
 30
0.0
 40
0.5
 41
0.5
  0
VERTEX
  8
0
 10
74.0559
 20
88.9089
 30
0.0
 40
0.5
 41
0.5
  0
VERTEX
  8
0
 10
73.1921
 20
88.8066
 30
0.0
 40
0.5
 41
0.5
  0
VERTEX
  8
0
 10
72.7732
 20
88.605
 30
0.0
 40
0.5
 41
0.5
  0
VERTEX
  8
0
 10
72.425
 20
88.4895
 30
0.0
 40
0.5
 41
0.5
  0
VERTEX
  8
0
 10
72.3691
 20
88.3113
 30
0.0
 40
0.5
 41
0.5
  0
VERTEX
  8
0
 10
72.8425
 20
87.8296
 30
0.0
 40
0.5
 41
0.5
  0
VERTEX
  8
0
 10
72.9709
 20
87.876
 30
0.0
 40
0.5
 41
0.5
  0
VERTEX
  8
0
 10
73.7883
 20
88.0632
 30
0.0
 40
0.5
 41
0.5
  0
SEQEND
  8
0
  0
POLYLINE
8
0
 62
     0
 66
     1
 10
0
 20
0
 30
0.0
 70
     1
 40
0.5
 41
0.5
  0
VERTEX
  8
0
 10
73.0688
 20
98.9509
 30
0.0
 40
0.5
 41
0.5
  0
VERTEX
  8
0
 10
73.1868
 20
98.3826
 30
0.0
 40
0.5
 41
0.5
  0
VERTEX
  8
0
 10
73.7727
 20
98.3887
 30
0.0
 40
0.5
 41
0.5
  0
VERTEX
  8
0
 10
74.0693
 20
98.771
 30
0.0
 40
0.5
 41
0.5
  0
VERTEX
  8
0
 10
74.1853
 20
98.8291
 30
0.0
 40
0.5
 41
0.5
  0
VERTEX
  8
0
 10
74.3464
 20
98.6384
 30
0.0
 40
0.5
 41
0.5
  0
VERTEX
  8
0
 10
74.468
 20
98.6946
 30
0.0
 40
0.5
 41
0.5
  0
VERTEX
  8
0
 10
74.6028
 20
98.646
 30
0.0
 40
0.5
 41
0.5
  0
VERTEX
  8
0
 10
74.8718
 20
98.7686
 30
0.0
 40
0.5
 41
0.5
  0
VERTEX
  8
0
 10
74.6282
 20
99.2075
 30
0.0
 40
0.5
 41
0.5
  0
VERTEX
  8
0
 10
74.2598
 20
99.5166
 30
0.0
 40
0.5
 41
0.5
  0
VERTEX
  8
0
 10
74.2551
 20
99.3823
 30
0.0
 40
0.5
 41
0.5
  0
VERTEX
  8
0
 10
74.1321
 20
99.3208
 30
0.0
 40
0.5
 41
0.5
  0
VERTEX
  8
0
 10
73.7158
 20
99.5847
 30
0.0
 40
0.5
 41
0.5
  0
VERTEX
  8
0
 10
73.7083
 20
99.4548
 30
0.0
 40
0.5
 41
0.5
  0
VERTEX
  8
0
 10
73.0688
 20
98.9509
 30
0.0
 40
0.5
 41
0.5
  0
SEQEND
  8
0
  0
POLYLINE
8
0
 62
     0
 66
     1
 10
0
 20
0
 30
0.0
 70
     1
 40
0.5
 41
0.5
  0
VERTEX
  8
0
 10
72.877
 20
90.9688
 30
0.0
 40
0.5
 41
0.5
  0
VERTEX
  8
0
 10
72.7014
 20
90.6104
 30
0.0
 40
0.5
 41
0.5
  0
VERTEX
  8
0
 10
72.8914
 20
90.554
 30
0.0
 40
0.5
 41
0.5
  0
VERTEX
  8
0
 10
72.832
 20
90.677
 30
0.0
 40
0.5
 41
0.5
  0
VERTEX
  8
0
 10
73.0286
 20
90.8535
 30
0.0
 40
0.5
 41
0.5
  0
VERTEX
  8
0
 10
73.7671
 20
91.2954
 30
0.0
 40
0.5
 41
0.5
  0
VERTEX
  8
0
 10
73.6687
 20
91.5623
 30
0.0
 40
0.5
 41
0.5
  0
VERTEX
  8
0
 10
73.4871
 20
92.0679
 30
0.0
 40
0.5
 41
0.5
  0
VERTEX
  8
0
 10
72.832
 20
91.9009
 30
0.0
 40
0.5
 41
0.5
  0
VERTEX
  8
0
 10
72.9009
 20
91.3569
 30
0.0
 40
0.5
 41
0.5
  0
VERTEX
  8
0
 10
72.877
 20
90.9688
 30
0.0
 40
0.5
 41
0.5
  0
SEQEND
  8
0
  0
POLYLINE
8
0
 62
     0
 66
     1
 10
0
 20
0
 30
0.0
 70
     1
 40
0.5
 41
0.5
  0
VERTEX
  8
0
 10
69.7651
 20
90.5806
 30
0.0
 40
0.5
 41
0.5
  0
VERTEX
  8
0
 10
70.3926
 20
90.7878
 30
0.0
 40
0.5
 41
0.5
  0
VERTEX
  8
0
 10
71.272
 20
90.5593
 30
0.0
 40
0.5
 41
0.5
  0
VERTEX
  8
0
 10
71.4041
 20
90.677
 30
0.0
 40
0.5
 41
0.5
  0
VERTEX
  8
0
 10
71.5266
 20
90.5396
 30
0.0
 40
0.5
 41
0.5
  0
VERTEX
  8
0
 10
71.3201
 20
90.1936
 30
0.0
 40
0.5
 41
0.5
  0
VERTEX
  8
0
 10
70.928
 20
89.9971
 30
0.0
 40
0.5
 41
0.5
  0
VERTEX
  8
0
 10
71.2
 20
90.0649
 30
0.0
 40
0.5
 41
0.5
  0
VERTEX
  8
0
 10
71.2678
 20
89.929
 30
0.0
 40
0.5
 41
0.5
  0
VERTEX
  8
0
 10
71.8115
 20
89.9949
 30
0.0
 40
0.5
 41
0.5
  0
VERTEX
  8
0
 10
71.9063
 20
89.6523
 30
0.0
 40
0.5
 41
0.5
  0
VERTEX
  8
0
 10
71.4719
 20
89.5891
 30
0.0
 40
0.5
 41
0.5
  0
VERTEX
  8
0
 10
71.676
 20
88.9771
 30
0.0
 40
0.5
 41
0.5
  0
VERTEX
  8
0
 10
72.3643
 20
89.5129
 30
0.0
 40
0.5
 41
0.5
  0
VERTEX
  8
0
 10
72.4871
 20
89.4514
 30
0.0
 40
0.5
 41
0.5
  0
VERTEX
  8
0
 10
72.4919
 20
89.3171
 30
0.0
 40
0.5
 41
0.5
  0
VERTEX
  8
0
 10
72.9749
 20
89.5754
 30
0.0
 40
0.5
 41
0.5
  0
VERTEX
  8
0
 10
73.3079
 20
89.3171
 30
0.0
 40
0.5
 41
0.5
  0
VERTEX
  8
0
 10
73.24
 20
89.4531
 30
0.0
 40
0.5
 41
0.5
  0
VERTEX
  8
0
 10
73.6479
 20
89.9971
 30
0.0
 40
0.5
 41
0.5
  0
VERTEX
  8
0
 10
73.7839
 20
89.793
 30
0.0
 40
0.5
 41
0.5
  0
VERTEX
  8
0
 10
73.9739
 20
89.7815
 30
0.0
 40
0.5
 41
0.5
  0
VERTEX
  8
0
 10
74.542
 20
89.5005
 30
0.0
 40
0.5
 41
0.5
  0
VERTEX
  8
0
 10
75.208
 20
89.4353
 30
0.0
 40
0.5
 41
0.5
  0
VERTEX
  8
0
 10
75.4158
 20
89.249
 30
0.0
 40
0.5
 41
0.5
  0
VERTEX
  8
0
 10
75.6875
 20
89.5046
 30
0.0
 40
0.5
 41
0.5
  0
VERTEX
  8
0
 10
76.2083
 20
89.2405
 30
0.0
 40
0.5
 41
0.5
  0
VERTEX
  8
0
 10
76.5403
 20
88.2129
 30
0.0
 40
0.5
 41
0.5
  0
VERTEX
  8
0
 10
76.4792
 20
87.0701
 30
0.0
 40
0.5
 41
0.5
  0
VERTEX
  8
0
 10
76.6663
 20
86.9265
 30
0.0
 40
0.5
 41
0.5
  0
VERTEX
  8
0
 10
76.8975
 20
86.7302
 30
0.0
 40
0.5
 41
0.5
  0
VERTEX
  8
0
 10
76.78
 20
86.6714
 30
0.0
 40
0.5
 41
0.5
  0
VERTEX
  8
0
 10
76.6426
 20
86.728
 30
0.0
 40
0.5
 41
0.5
  0
VERTEX
  8
0
 10
76.522
 20
86.6013
 30
0.0
 40
0.5
 41
0.5
  0
VERTEX
  8
0
 10
76.4888
 20
85.1633
 30
0.0
 40
0.5
 41
0.5
  0
VERTEX
  8
0
 10
76.3706
 20
85.1062
 30
0.0
 40
0.5
 41
0.5
  0
VERTEX
  8
0
 10
76.2292
 20
85.2261
 30
0.0
 40
0.5
 41
0.5
  0
VERTEX
  8
0
 10
75.6978
 20
85.1238
 30
0.0
 40
0.5
 41
0.5
  0
VERTEX
  8
0
 10
75.2798
 20
85.3052
 30
0.0
 40
0.5
 41
0.5
  0
VERTEX
  8
0
 10
74.875
 20
85.1086
 30
0.0
 40
0.5
 41
0.5
  0
VERTEX
  8
0
 10
74.7361
 20
85.2375
 30
0.0
 40
0.5
 41
0.5
  0
VERTEX
  8
0
 10
74.7358
 20
85.509
 30
0.0
 40
0.5
 41
0.5
  0
VERTEX
  8
0
 10
74.7219
 20
85.2456
 30
0.0
 40
0.5
 41
0.5
  0
VERTEX
  8
0
 10
74.3279
 20
85.373
 30
0.0
 40
0.5
 41
0.5
  0
VERTEX
  8
0
 10
73.3054
 20
85.1357
 30
0.0
 40
0.5
 41
0.5
  0
VERTEX
  8
0
 10
72.4517
 20
85.1528
 30
0.0
 40
0.5
 41
0.5
  0
VERTEX
  8
0
 10
71.4868
 20
85.3357
 30
0.0
 40
0.5
 41
0.5
  0
VERTEX
  8
0
 10
70.9526
 20
85.853
 30
0.0
 40
0.5
 41
0.5
  0
VERTEX
  8
0
 10
70.5881
 20
86.5972
 30
0.0
 40
0.5
 41
0.5
  0
VERTEX
  8
0
 10
70.5996
 20
87.135
 30
0.0
 40
0.5
 41
0.5
  0
VERTEX
  8
0
 10
70.8501
 20
87.4189
 30
0.0
 40
0.5
 41
0.5
  0
VERTEX
  8
0
 10
70.7429
 20
87.8779
 30
0.0
 40
0.5
 41
0.5
  0
VERTEX
  8
0
 10
71.2
 20
88.5691
 30
0.0
 40
0.5
 41
0.5
  0
VERTEX
  8
0
 10
70.854
 20
88.3962
 30
0.0
 40
0.5
 41
0.5
  0
VERTEX
  8
0
 10
70.6238
 20
88.584
 30
0.0
 40
0.5
 41
0.5
  0
VERTEX
  8
0
 10
70.4553
 20
88.7996
 30
0.0
 40
0.5
 41
0.5
  0
VERTEX
  8
0
 10
70.248
 20
88.365
 30
0.0
 40
0.5
 41
0.5
  0
VERTEX
  8
0
 10
70.5698
 20
88.2253
 30
0.0
 40
0.5
 41
0.5
  0
VERTEX
  8
0
 10
70.449
 20
88.1021
 30
0.0
 40
0.5
 41
0.5
  0
VERTEX
  8
0
 10
69.9761
 20
88.501
 30
0.0
 40
0.5
 41
0.5
  0
VERTEX
  8
0
 10
69.5
 20
88.2971
 30
0.0
 40
0.5
 41
0.5
  0
VERTEX
  8
0
 10
69.6328
 20
88.2275
 30
0.0
 40
0.5
 41
0.5
  0
VERTEX
  8
0
 10
69.5671
 20
88.1025
 30
0.0
 40
0.5
 41
0.5
  0
VERTEX
  8
0
 10
68.9133
 20
88.1833
 30
0.0
 40
0.5
 41
0.5
  0
VERTEX
  8
0
 10
68.1028
 20
88.5151
 30
0.0
 40
0.5
 41
0.5
  0
VERTEX
  8
0
 10
67.1204
 20
88.4158
 30
0.0
 40
0.5
 41
0.5
  0
VERTEX
  8
0
 10
66.804
 20
88.6799
 30
0.0
 40
0.5
 41
0.5
  0
VERTEX
  8
0
 10
66.8174
 20
89.1755
 30
0.0
 40
0.5
 41
0.5
  0
VERTEX
  8
0
 10
67.3301
 20
89.562
 30
0.0
 40
0.5
 41
0.5
  0
VERTEX
  8
0
 10
67.7361
 20
89.6089
 30
0.0
 40
0.5
 41
0.5
  0
VERTEX
  8
0
 10
68.4038
 20
89.8901
 30
0.0
 40
0.5
 41
0.5
  0
VERTEX
  8
0
 10
68.875
 20
89.9709
 30
0.0
 40
0.5
 41
0.5
  0
VERTEX
  8
0
 10
69.5056
 20
90.3237
 30
0.0
 40
0.5
 41
0.5
  0
VERTEX
  8
0
 10
69.7651
 20
90.5806
 30
0.0
 40
0.5
 41
0.5
  0
SEQEND
  8
0
  0
POLYLINE
8
0
 62
     0
 66
     1
 10
0
 20
0
 30
0.0
 70
     1
 40
0.5
 41
0.5
  0
VERTEX
  8
0
 10
69.783
 20
99.7947
 30
0.0
 40
0.5
 41
0.5
  0
VERTEX
  8
0
 10
69.3074
 20
100.284
 30
0.0
 40
0.5
 41
0.5
  0
VERTEX
  8
0
 10
69.364
 20
100.469
 30
0.0
 40
0.5
 41
0.5
  0
VERTEX
  8
0
 10
69.1465
 20
101.079
 30
0.0
 40
0.5
 41
0.5
  0
VERTEX
  8
0
 10
69.0398
 20
101.216
 30
0.0
 40
0.5
 41
0.5
  0
VERTEX
  8
0
 10
69.3694
 20
101.522
 30
0.0
 40
0.5
 41
0.5
  0
VERTEX
  8
0
 10
70.7371
 20
102.003
 30
0.0
 40
0.5
 41
0.5
  0
VERTEX
  8
0
 10
71.0847
 20
101.886
 30
0.0
 40
0.5
 41
0.5
  0
VERTEX
  8
0
 10
71.1472
 20
101.42
 30
0.0
 40
0.5
 41
0.5
  0
VERTEX
  8
0
 10
71.261
 20
101.281
 30
0.0
 40
0.5
 41
0.5
  0
VERTEX
  8
0
 10
71.1318
 20
101.013
 30
0.0
 40
0.5
 41
0.5
  0
VERTEX
  8
0
 10
71.2678
 20
100.673
 30
0.0
 40
0.5
 41
0.5
  0
VERTEX
  8
0
 10
71.6445
 20
100.789
 30
0.0
 40
0.5
 41
0.5
  0
VERTEX
  8
0
 10
71.9072
 20
100.661
 30
0.0
 40
0.5
 41
0.5
  0
VERTEX
  8
0
 10
72.0222
 20
100.213
 30
0.0
 40
0.5
 41
0.5
  0
VERTEX
  8
0
 10
72.2898
 20
100.313
 30
0.0
 40
0.5
 41
0.5
  0
VERTEX
  8
0
 10
72.4194
 20
100.085
 30
0.0
 40
0.5
 41
0.5
  0
VERTEX
  8
0
 10
72.832
 20
100.333
 30
0.0
 40
0.5
 41
0.5
  0
VERTEX
  8
0
 10
72.9636
 20
100.271
 30
0.0
 40
0.5
 41
0.5
  0
VERTEX
  8
0
 10
73.0964
 20
100.325
 30
0.0
 40
0.5
 41
0.5
  0
VERTEX
  8
0
 10
73.6145
 20
100.264
 30
0.0
 40
0.5
 41
0.5
  0
VERTEX
  8
0
 10
74.1282
 20
100.526
 30
0.0
 40
0.5
 41
0.5
  0
VERTEX
  8
0
 10
74.3279
 20
100.469
 30
0.0
 40
0.5
 41
0.5
  0
VERTEX
  8
0
 10
75.4138
 20
100.785
 30
0.0
 40
0.5
 41
0.5
  0
VERTEX
  8
0
 10
75.5518
 20
100.469
 30
0.0
 40
0.5
 41
0.5
  0
VERTEX
  8
0
 10
75.7427
 20
100.457
 30
0.0
 40
0.5
 41
0.5
  0
VERTEX
  8
0
 10
76.4387
 20
99.8635
 30
0.0
 40
0.5
 41
0.5
  0
VERTEX
  8
0
 10
76.614
 20
99.9895
 30
0.0
 40
0.5
 41
0.5
  0
VERTEX
  8
0
 10
76.6743
 20
100.443
 30
0.0
 40
0.5
 41
0.5
  0
VERTEX
  8
0
 10
77.0479
 20
100.605
 30
0.0
 40
0.5
 41
0.5
  0
VERTEX
  8
0
 10
77.188
 20
100.868
 30
0.0
 40
0.5
 41
0.5
  0
VERTEX
  8
0
 10
77.6733
 20
101.152
 30
0.0
 40
0.5
 41
0.5
  0
VERTEX
  8
0
 10
78.2688
 20
101.329
 30
0.0
 40
0.5
 41
0.5
  0
VERTEX
  8
0
 10
78.5498
 20
101.182
 30
0.0
 40
0.5
 41
0.5
  0
VERTEX
  8
0
 10
79.3535
 20
101.109
 30
0.0
 40
0.5
 41
0.5
  0
VERTEX
  8
0
 10
79.8921
 20
100.523
 30
0.0
 40
0.5
 41
0.5
  0
VERTEX
  8
0
 10
79.9128
 20
100.337
 30
0.0
 40
0.5
 41
0.5
  0
VERTEX
  8
0
 10
80.0872
 20
100.127
 30
0.0
 40
0.5
 41
0.5
  0
VERTEX
  8
0
 10
80.3118
 20
99.6526
 30
0.0
 40
0.5
 41
0.5
  0
VERTEX
  8
0
 10
80.0071
 20
99.1133
 30
0.0
 40
0.5
 41
0.5
  0
VERTEX
  8
0
 10
79.6919
 20
98.7842
 30
0.0
 40
0.5
 41
0.5
  0
VERTEX
  8
0
 10
79.3645
 20
98.8967
 30
0.0
 40
0.5
 41
0.5
  0
VERTEX
  8
0
 10
79.0469
 20
98.4834
 30
0.0
 40
0.5
 41
0.5
  0
VERTEX
  8
0
 10
79.313
 20
98.0718
 30
0.0
 40
0.5
 41
0.5
  0
VERTEX
  8
0
 10
80.1057
 20
97.5999
 30
0.0
 40
0.5
 41
0.5
  0
VERTEX
  8
0
 10
80.2388
 20
97.4739
 30
0.0
 40
0.5
 41
0.5
  0
VERTEX
  8
0
 10
80.1758
 20
97.3408
 30
0.0
 40
0.5
 41
0.5
  0
VERTEX
  8
0
 10
80.8379
 20
96.8591
 30
0.0
 40
0.5
 41
0.5
  0
VERTEX
  8
0
 10
80.7925
 20
96.7317
 30
0.0
 40
0.5
 41
0.5
  0
VERTEX
  8
0
 10
80.9063
 20
96.5955
 30
0.0
 40
0.5
 41
0.5
  0
VERTEX
  8
0
 10
80.5706
 20
95.7749
 30
0.0
 40
0.5
 41
0.5
  0
VERTEX
  8
0
 10
80.4478
 20
95.7087
 30
0.0
 40
0.5
 41
0.5
  0
VERTEX
  8
0
 10
80.4478
 20
95.5728
 30
0.0
 40
0.5
 41
0.5
  0
VERTEX
  8
0
 10
80.5686
 20
95.5115
 30
0.0
 40
0.5
 41
0.5
  0
VERTEX
  8
0
 10
80.1758
 20
95.3689
 30
0.0
 40
0.5
 41
0.5
  0
VERTEX
  8
0
 10
79.9512
 20
94.938
 30
0.0
 40
0.5
 41
0.5
  0
VERTEX
  8
0
 10
79.5505
 20
94.7769
 30
0.0
 40
0.5
 41
0.5
  0
VERTEX
  8
0
 10
78.7058
 20
95.0276
 30
0.0
 40
0.5
 41
0.5
  0
VERTEX
  8
0
 10
78.0774
 20
95.782
 30
0.0
 40
0.5
 41
0.5
  0
VERTEX
  8
0
 10
78.2065
 20
96.0283
 30
0.0
 40
0.5
 41
0.5
  0
VERTEX
  8
0
 10
78.3398
 20
95.7087
 30
0.0
 40
0.5
 41
0.5
  0
VERTEX
  8
0
 10
78.4092
 20
96.0586
 30
0.0
 40
0.5
 41
0.5
  0
VERTEX
  8
0
 10
78.5437
 20
96.3887
 30
0.0
 40
0.5
 41
0.5
  0
VERTEX
  8
0
 10
78.4148
 20
96.4585
 30
0.0
 40
0.5
 41
0.5
  0
VERTEX
  8
0
 10
78.3923
 20
96.7156
 30
0.0
 40
0.5
 41
0.5
  0
VERTEX
  8
0
 10
78.2717
 20
97.4087
 30
0.0
 40
0.5
 41
0.5
  0
VERTEX
  8
0
 10
78.0679
 20
98.0886
 30
0.0
 40
0.5
 41
0.5
  0
VERTEX
  8
0
 10
77.8757
 20
98.2322
 30
0.0
 40
0.5
 41
0.5
  0
VERTEX
  8
0
 10
77.9998
 20
98.4287
 30
0.0
 40
0.5
 41
0.5
  0
VERTEX
  8
0
 10
77.8115
 20
98.5715
 30
0.0
 40
0.5
 41
0.5
  0
VERTEX
  8
0
 10
78.1357
 20
98.8367
 30
0.0
 40
0.5
 41
0.5
  0
VERTEX
  8
0
 10
78.2039
 20
99.4487
 30
0.0
 40
0.5
 41
0.5
  0
VERTEX
  8
0
 10
77.9399
 20
99.5986
 30
0.0
 40
0.5
 41
0.5
  0
VERTEX
  8
0
 10
78
 20
99.71
 30
0.0
 40
0.5
 41
0.5
  0
VERTEX
  8
0
 10
78.4077
 20
99.9927
 30
0.0
 40
0.5
 41
0.5
  0
VERTEX
  8
0
 10
78.1433
 20
99.8337
 30
0.0
 40
0.5
 41
0.5
  0
VERTEX
  8
0
 10
78.0098
 20
99.9187
 30
0.0
 40
0.5
 41
0.5
  0
VERTEX
  8
0
 10
77.9307
 20
99.7231
 30
0.0
 40
0.5
 41
0.5
  0
VERTEX
  8
0
 10
77.4558
 20
99.7886
 30
0.0
 40
0.5
 41
0.5
  0
VERTEX
  8
0
 10
77.5886
 20
99.7192
 30
0.0
 40
0.5
 41
0.5
  0
VERTEX
  8
0
 10
77.5247
 20
99.5969
 30
0.0
 40
0.5
 41
0.5
  0
VERTEX
  8
0
 10
77.146
 20
99.5
 30
0.0
 40
0.5
 41
0.5
  0
VERTEX
  8
0
 10
77.219
 20
98.6423
 30
0.0
 40
0.5
 41
0.5
  0
VERTEX
  8
0
 10
77.5813
 20
98.157
 30
0.0
 40
0.5
 41
0.5
  0
VERTEX
  8
0
 10
77.4678
 20
98.0737
 30
0.0
 40
0.5
 41
0.5
  0
VERTEX
  8
0
 10
77.5237
 20
97.8167
 30
0.0
 40
0.5
 41
0.5
  0
VERTEX
  8
0
 10
77.7278
 20
97.8848
 30
0.0
 40
0.5
 41
0.5
  0
VERTEX
  8
0
 10
77.7898
 20
97.7524
 30
0.0
 40
0.5
 41
0.5
  0
VERTEX
  8
0
 10
77.5918
 20
97.5447
 30
0.0
 40
0.5
 41
0.5
  0
VERTEX
  8
0
 10
77.7937
 20
97.4758
 30
0.0
 40
0.5
 41
0.5
  0
VERTEX
  8
0
 10
77.7258
 20
97.3469
 30
0.0
 40
0.5
 41
0.5
  0
VERTEX
  8
0
 10
77.5237
 20
97.3408
 30
0.0
 40
0.5
 41
0.5
  0
VERTEX
  8
0
 10
77.4392
 20
95.8347
 30
0.0
 40
0.5
 41
0.5
  0
VERTEX
  8
0
 10
77.9316
 20
94.5527
 30
0.0
 40
0.5
 41
0.5
  0
VERTEX
  8
0
 10
77.6143
 20
94.375
 30
0.0
 40
0.5
 41
0.5
  0
VERTEX
  8
0
 10
77.4558
 20
94.0769
 30
0.0
 40
0.5
 41
0.5
  0
VERTEX
  8
0
 10
77.781
 20
93.8647
 30
0.0
 40
0.5
 41
0.5
  0
VERTEX
  8
0
 10
77.656
 20
93.551
 30
0.0
 40
0.5
 41
0.5
  0
VERTEX
  8
0
 10
77.5291
 20
93.6506
 30
0.0
 40
0.5
 41
0.5
  0
VERTEX
  8
0
 10
76.3816
 20
93.9492
 30
0.0
 40
0.5
 41
0.5
  0
VERTEX
  8
0
 10
76.3579
 20
94.2092
 30
0.0
 40
0.5
 41
0.5
  0
VERTEX
  8
0
 10
75.3552
 20
95.3071
 30
0.0
 40
0.5
 41
0.5
  0
VERTEX
  8
0
 10
75.4175
 20
95.4307
 30
0.0
 40
0.5
 41
0.5
  0
VERTEX
  8
0
 10
75.6091
 20
95.4482
 30
0.0
 40
0.5
 41
0.5
  0
VERTEX
  8
0
 10
76.334
 20
95.9387
 30
0.0
 40
0.5
 41
0.5
  0
VERTEX
  8
0
 10
76.5068
 20
96.7161
 30
0.0
 40
0.5
 41
0.5
  0
VERTEX
  8
0
 10
76.5278
 20
97.5376
 30
0.0
 40
0.5
 41
0.5
  0
VERTEX
  8
0
 10
76.6609
 20
97.8899
 30
0.0
 40
0.5
 41
0.5
  0
VERTEX
  8
0
 10
76.7756
 20
99.0405
 30
0.0
 40
0.5
 41
0.5
  0
VERTEX
  8
0
 10
76.2852
 20
98.6487
 30
0.0
 40
0.5
 41
0.5
  0
VERTEX
  8
0
 10
76.0278
 20
98.7686
 30
0.0
 40
0.5
 41
0.5
  0
VERTEX
  8
0
 10
76.3003
 20
98.3608
 30
0.0
 40
0.5
 41
0.5
  0
VERTEX
  8
0
 10
76.23
 20
98.231
 30
0.0
 40
0.5
 41
0.5
  0
VERTEX
  8
0
 10
76.0278
 20
98.2249
 30
0.0
 40
0.5
 41
0.5
  0
VERTEX
  8
0
 10
76.1025
 20
97.7959
 30
0.0
 40
0.5
 41
0.5
  0
VERTEX
  8
0
 10
75.8918
 20
97.4768
 30
0.0
 40
0.5
 41
0.5
  0
VERTEX
  8
0
 10
75.9182
 20
96.593
 30
0.0
 40
0.5
 41
0.5
  0
VERTEX
  8
0
 10
75.8054
 20
96.2573
 30
0.0
 40
0.5
 41
0.5
  0
VERTEX
  8
0
 10
75.5476
 20
95.9226
 30
0.0
 40
0.5
 41
0.5
  0
VERTEX
  8
0
 10
75.0779
 20
95.9753
 30
0.0
 40
0.5
 41
0.5
  0
VERTEX
  8
0
 10
74.1238
 20
95.8447
 30
0.0
 40
0.5
 41
0.5
  0
VERTEX
  8
0
 10
74.2346
 20
95.4595
 30
0.0
 40
0.5
 41
0.5
  0
VERTEX
  8
0
 10
73.7429
 20
95.314
 30
0.0
 40
0.5
 41
0.5
  0
VERTEX
  8
0
 10
73.3757
 20
95.7087
 30
0.0
 40
0.5
 41
0.5
  0
VERTEX
  8
0
 10
73.3079
 20
95.0969
 30
0.0
 40
0.5
 41
0.5
  0
VERTEX
  8
0
 10
73.9849
 20
95.1392
 30
0.0
 40
0.5
 41
0.5
  0
VERTEX
  8
0
 10
75.1555
 20
94.7751
 30
0.0
 40
0.5
 41
0.5
  0
VERTEX
  8
0
 10
75.2805
 20
94.8784
 30
0.0
 40
0.5
 41
0.5
  0
VERTEX
  8
0
 10
75.6877
 20
94.6208
 30
0.0
 40
0.5
 41
0.5
  0
VERTEX
  8
0
 10
75.6331
 20
94.4316
 30
0.0
 40
0.5
 41
0.5
  0
VERTEX
  8
0
 10
75.7327
 20
94.5366
 30
0.0
 40
0.5
 41
0.5
  0
VERTEX
  8
0
 10
75.9861
 20
93.8862
 30
0.0
 40
0.5
 41
0.5
  0
VERTEX
  8
0
 10
75.5891
 20
93.2764
 30
0.0
 40
0.5
 41
0.5
  0
VERTEX
  8
0
 10
75.8918
 20
93.3967
 30
0.0
 40
0.5
 41
0.5
  0
VERTEX
  8
0
 10
76.115
 20
93.8757
 30
0.0
 40
0.5
 41
0.5
  0
VERTEX
  8
0
 10
76.2871
 20
93.9275
 30
0.0
 40
0.5
 41
0.5
  0
VERTEX
  8
0
 10
76.592
 20
93.3794
 30
0.0
 40
0.5
 41
0.5
  0
VERTEX
  8
0
 10
76.6208
 20
92.6521
 30
0.0
 40
0.5
 41
0.5
  0
VERTEX
  8
0
 10
76.3682
 20
92.3936
 30
0.0
 40
0.5
 41
0.5
  0
VERTEX
  8
0
 10
75.6035
 20
92.5313
 30
0.0
 40
0.5
 41
0.5
  0
VERTEX
  8
0
 10
75.4492
 20
92.1812
 30
0.0
 40
0.5
 41
0.5
  0
VERTEX
  8
0
 10
75.365
 20
91.8687
 30
0.0
 40
0.5
 41
0.5
  0
VERTEX
  8
0
 10
75.6047
 20
91.5186
 30
0.0
 40
0.5
 41
0.5
  0
VERTEX
  8
0
 10
75.6033
 20
91.0994
 30
0.0
 40
0.5
 41
0.5
  0
VERTEX
  8
0
 10
75.825
 20
91.2854
 30
0.0
 40
0.5
 41
0.5
  0
VERTEX
  8
0
 10
76.1638
 20
91.3569
 30
0.0
 40
0.5
 41
0.5
  0
VERTEX
  8
0
 10
76.3677
 20
91.0168
 30
0.0
 40
0.5
 41
0.5
  0
VERTEX
  8
0
 10
76.7368
 20
91.8997
 30
0.0
 40
0.5
 41
0.5
  0
VERTEX
  8
0
 10
77.0276
 20
91.9453
 30
0.0
 40
0.5
 41
0.5
  0
VERTEX
  8
0
 10
77.4343
 20
91.6624
 30
0.0
 40
0.5
 41
0.5
  0
VERTEX
  8
0
 10
78.2029
 20
91.6672
 30
0.0
 40
0.5
 41
0.5
  0
VERTEX
  8
0
 10
78.2866
 20
91.3823
 30
0.0
 40
0.5
 41
0.5
  0
VERTEX
  8
0
 10
78.8167
 20
91.2227
 30
0.0
 40
0.5
 41
0.5
  0
VERTEX
  8
0
 10
79.124
 20
91.2561
 30
0.0
 40
0.5
 41
0.5
  0
VERTEX
  8
0
 10
79.302
 20
91.2183
 30
0.0
 40
0.5
 41
0.5
  0
VERTEX
  8
0
 10
79.095
 20
90.6013
 30
0.0
 40
0.5
 41
0.5
  0
VERTEX
  8
0
 10
78.9712
 20
89.9343
 30
0.0
 40
0.5
 41
0.5
  0
VERTEX
  8
0
 10
79.0735
 20
89.6675
 30
0.0
 40
0.5
 41
0.5
  0
VERTEX
  8
0
 10
78.4751
 20
89.7766
 30
0.0
 40
0.5
 41
0.5
  0
VERTEX
  8
0
 10
78.3442
 20
89.7314
 30
0.0
 40
0.5
 41
0.5
  0
VERTEX
  8
0
 10
78.0679
 20
89.9971
 30
0.0
 40
0.5
 41
0.5
  0
VERTEX
  8
0
 10
77.8625
 20
89.4331
 30
0.0
 40
0.5
 41
0.5
  0
VERTEX
  8
0
 10
77.394
 20
89.1772
 30
0.0
 40
0.5
 41
0.5
  0
VERTEX
  8
0
 10
77.0396
 20
88.7859
 30
0.0
 40
0.5
 41
0.5
  0
VERTEX
  8
0
 10
76.8601
 20
88.8401
 30
0.0
 40
0.5
 41
0.5
  0
VERTEX
  8
0
 10
76.5718
 20
89.113
 30
0.0
 40
0.5
 41
0.5
  0
VERTEX
  8
0
 10
76.7078
 20
89.249
 30
0.0
 40
0.5
 41
0.5
  0
VERTEX
  8
0
 10
76.9766
 20
89.1934
 30
0.0
 40
0.5
 41
0.5
  0
VERTEX
  8
0
 10
77.0479
 20
89.4531
 30
0.0
 40
0.5
 41
0.5
  0
VERTEX
  8
0
 10
76.7781
 20
89.3418
 30
0.0
 40
0.5
 41
0.5
  0
VERTEX
  8
0
 10
76.592
 20
89.5532
 30
0.0
 40
0.5
 41
0.5
  0
VERTEX
  8
0
 10
76.542
 20
89.8328
 30
0.0
 40
0.5
 41
0.5
  0
VERTEX
  8
0
 10
76.2402
 20
89.8242
 30
0.0
 40
0.5
 41
0.5
  0
VERTEX
  8
0
 10
75.8967
 20
89.8655
 30
0.0
 40
0.5
 41
0.5
  0
VERTEX
  8
0
 10
75.8918
 20
90.2009
 30
0.0
 40
0.5
 41
0.5
  0
VERTEX
  8
0
 10
75.6191
 20
89.8374
 30
0.0
 40
0.5
 41
0.5
  0
VERTEX
  8
0
 10
75.1318
 20
90.2915
 30
0.0
 40
0.5
 41
0.5
  0
VERTEX
  8
0
 10
74.6689
 20
90.3508
 30
0.0
 40
0.5
 41
0.5
  0
VERTEX
  8
0
 10
74.5371
 20
90.4546
 30
0.0
 40
0.5
 41
0.5
  0
VERTEX
  8
0
 10
73.7529
 20
90.2681
 30
0.0
 40
0.5
 41
0.5
  0
VERTEX
  8
0
 10
72.8792
 20
90.3162
 30
0.0
 40
0.5
 41
0.5
  0
VERTEX
  8
0
 10
72.6409
 20
90.2297
 30
0.0
 40
0.5
 41
0.5
  0
VERTEX
  8
0
 10
71.8958
 20
90.1677
 30
0.0
 40
0.5
 41
0.5
  0
VERTEX
  8
0
 10
71.7573
 20
90.6411
 30
0.0
 40
0.5
 41
0.5
  0
VERTEX
  8
0
 10
72.1519
 20
90.4731
 30
0.0
 40
0.5
 41
0.5
  0
VERTEX
  8
0
 10
72.2529
 20
90.9648
 30
0.0
 40
0.5
 41
0.5
  0
VERTEX
  8
0
 10
71.8848
 20
91.2793
 30
0.0
 40
0.5
 41
0.5
  0
VERTEX
  8
0
 10
71.5352
 20
90.844
 30
0.0
 40
0.5
 41
0.5
  0
VERTEX
  8
0
 10
70.8828
 20
91.1716
 30
0.0
 40
0.5
 41
0.5
  0
VERTEX
  8
0
 10
70.8428
 20
91.5532
 30
0.0
 40
0.5
 41
0.5
  0
VERTEX
  8
0
 10
70.1167
 20
91.7903
 30
0.0
 40
0.5
 41
0.5
  0
VERTEX
  8
0
 10
69.908
 20
92.105
 30
0.0
 40
0.5
 41
0.5
  0
VERTEX
  8
0
 10
69.5537
 20
91.8911
 30
0.0
 40
0.5
 41
0.5
  0
VERTEX
  8
0
 10
69.1521
 20
91.7974
 30
0.0
 40
0.5
 41
0.5
  0
VERTEX
  8
0
 10
69.0142
 20
91.4937
 30
0.0
 40
0.5
 41
0.5
  0
VERTEX
  8
0
 10
68.8896
 20
91.4282
 30
0.0
 40
0.5
 41
0.5
  0
VERTEX
  8
0
 10
68.8201
 20
91.561
 30
0.0
 40
0.5
 41
0.5
  0
VERTEX
  8
0
 10
68.6238
 20
91.4915
 30
0.0
 40
0.5
 41
0.5
  0
VERTEX
  8
0
 10
68.6519
 20
91.0635
 30
0.0
 40
0.5
 41
0.5
  0
VERTEX
  8
0
 10
68.6072
 20
90.6431
 30
0.0
 40
0.5
 41
0.5
  0
VERTEX
  8
0
 10
67.9373
 20
90.8091
 30
0.0
 40
0.5
 41
0.5
  0
VERTEX
  8
0
 10
67.4587
 20
90.4414
 30
0.0
 40
0.5
 41
0.5
  0
VERTEX
  8
0
 10
66.9041
 20
90.3042
 30
0.0
 40
0.5
 41
0.5
  0
VERTEX
  8
0
 10
66.7122
 20
90.0649
 30
0.0
 40
0.5
 41
0.5
  0
VERTEX
  8
0
 10
66.5576
 20
90.2632
 30
0.0
 40
0.5
 41
0.5
  0
VERTEX
  8
0
 10
66.4402
 20
90.2009
 30
0.0
 40
0.5
 41
0.5
  0
VERTEX
  8
0
 10
66.0991
 20
90.5244
 30
0.0
 40
0.5
 41
0.5
  0
VERTEX
  8
0
 10
65.9661
 20
90.4768
 30
0.0
 40
0.5
 41
0.5
  0
VERTEX
  8
0
 10
65.8464
 20
91.0938
 30
0.0
 40
0.5
 41
0.5
  0
VERTEX
  8
0
 10
65.9531
 20
91.2026
 30
0.0
 40
0.5
 41
0.5
  0
VERTEX
  8
0
 10
66.4468
 20
91.3494
 30
0.0
 40
0.5
 41
0.5
  0
VERTEX
  8
0
 10
66.5713
 20
91.2874
 30
0.0
 40
0.5
 41
0.5
  0
VERTEX
  8
0
 10
66.5762
 20
91.1528
 30
0.0
 40
0.5
 41
0.5
  0
VERTEX
  8
0
 10
66.8518
 20
91.759
 30
0.0
 40
0.5
 41
0.5
  0
VERTEX
  8
0
 10
66.9841
 20
91.697
 30
0.0
 40
0.5
 41
0.5
  0
VERTEX
  8
0
 10
66.9163
 20
91.561
 30
0.0
 40
0.5
 41
0.5
  0
VERTEX
  8
0
 10
67.1926
 20
91.8877
 30
0.0
 40
0.5
 41
0.5
  0
VERTEX
  8
0
 10
67.9121
 20
92.2764
 30
0.0
 40
0.5
 41
0.5
  0
VERTEX
  8
0
 10
67.7454
 20
92.4443
 30
0.0
 40
0.5
 41
0.5
  0
VERTEX
  8
0
 10
67.3003
 20
93.5444
 30
0.0
 40
0.5
 41
0.5
  0
VERTEX
  8
0
 10
66.8594
 20
93.6738
 30
0.0
 40
0.5
 41
0.5
  0
VERTEX
  8
0
 10
66.9771
 20
94.0161
 30
0.0
 40
0.5
 41
0.5
  0
VERTEX
  8
0
 10
66.9226
 20
94.269
 30
0.0
 40
0.5
 41
0.5
  0
VERTEX
  8
0
 10
67.1309
 20
94.2275
 30
0.0
 40
0.5
 41
0.5
  0
VERTEX
  8
0
 10
67.5051
 20
94.3799
 30
0.0
 40
0.5
 41
0.5
  0
VERTEX
  8
0
 10
68.4043
 20
95.3762
 30
0.0
 40
0.5
 41
0.5
  0
VERTEX
  8
0
 10
68.3442
 20
95.5049
 30
0.0
 40
0.5
 41
0.5
  0
VERTEX
  8
0
 10
67.9773
 20
95.5457
 30
0.0
 40
0.5
 41
0.5
  0
VERTEX
  8
0
 10
67.5281
 20
95.7087
 30
0.0
 40
0.5
 41
0.5
  0
VERTEX
  8
0
 10
67.0583
 20
95.45
 30
0.0
 40
0.5
 41
0.5
  0
VERTEX
  8
0
 10
66.78
 20
96.1167
 30
0.0
 40
0.5
 41
0.5
  0
VERTEX
  8
0
 10
66.5999
 20
96.3589
 30
0.0
 40
0.5
 41
0.5
  0
VERTEX
  8
0
 10
66.7612
 20
96.9919
 30
0.0
 40
0.5
 41
0.5
  0
VERTEX
  8
0
 10
66.5779
 20
97.0068
 30
0.0
 40
0.5
 41
0.5
  0
VERTEX
  8
0
 10
66.5132
 20
97.134
 30
0.0
 40
0.5
 41
0.5
  0
VERTEX
  8
0
 10
66.647
 20
97.2678
 30
0.0
 40
0.5
 41
0.5
  0
VERTEX
  8
0
 10
66.78
 20
97.2048
 30
0.0
 40
0.5
 41
0.5
  0
VERTEX
  8
0
 10
66.6423
 20
97.3276
 30
0.0
 40
0.5
 41
0.5
  0
VERTEX
  8
0
 10
66.3188
 20
97.4807
 30
0.0
 40
0.5
 41
0.5
  0
VERTEX
  8
0
 10
66.5239
 20
98.1995
 30
0.0
 40
0.5
 41
0.5
  0
VERTEX
  8
0
 10
67.0605
 20
98.4692
 30
0.0
 40
0.5
 41
0.5
  0
VERTEX
  8
0
 10
67.936
 20
99.0405
 30
0.0
 40
0.5
 41
0.5
  0
VERTEX
  8
0
 10
68.0522
 20
98.9775
 30
0.0
 40
0.5
 41
0.5
  0
VERTEX
  8
0
 10
68.7537
 20
99.3628
 30
0.0
 40
0.5
 41
0.5
  0
VERTEX
  8
0
 10
69.3955
 20
99.4573
 30
0.0
 40
0.5
 41
0.5
  0
VERTEX
  8
0
 10
69.783
 20
99.7947
 30
0.0
 40
0.5
 41
0.5
  0
SEQEND
  8
0
  0
POLYLINE
8
0
 62
     0
 66
     1
 10
0
 20
0
 30
0.0
 70
     1
 40
0.5
 41
0.5
  0
VERTEX
  8
0
 10
164.866
 20
108.386
 30
0.0
 40
0.5
 41
0.5
  0
VERTEX
  8
0
 10
343.449
 20
108.386
 30
0.0
 40
0.5
 41
0.5
  0
VERTEX
  8
0
 10
345.453
 20
107.555
 30
0.0
 40
0.5
 41
0.5
  0
VERTEX
  8
0
 10
346.283
 20
105.551
 30
0.0
 40
0.5
 41
0.5
  0
VERTEX
  8
0
 10
346.283
 20
68.7004
 30
0.0
 40
0.5
 41
0.5
  0
VERTEX
  8
0
 10
345.453
 20
66.6963
 30
0.0
 40
0.5
 41
0.5
  0
VERTEX
  8
0
 10
343.449
 20
65.866
 30
0.0
 40
0.5
 41
0.5
  0
VERTEX
  8
0
 10
164.866
 20
65.866
 30
0.0
 40
0.5
 41
0.5
  0
VERTEX
  8
0
 10
162.862
 20
66.6963
 30
0.0
 40
0.5
 41
0.5
  0
VERTEX
  8
0
 10
162.031
 20
68.7004
 30
0.0
 40
0.5
 41
0.5
  0
VERTEX
  8
0
 10
162.031
 20
105.551
 30
0.0
 40
0.5
 41
0.5
  0
VERTEX
  8
0
 10
162.862
 20
107.555
 30
0.0
 40
0.5
 41
0.5
  0
VERTEX
  8
0
 10
164.866
 20
108.386
 30
0.0
 40
0.5
 41
0.5
  0
SEQEND
  8
0
  0
POLYLINE
8
0
 62
     0
 66
     1
 10
0
 20
0
 30
0.0
 70
     1
 40
0.5
 41
0.5
  0
VERTEX
  8
0
 10
179.106
 20
92.2961
 30
0.0
 40
0.5
 41
0.5
  0
VERTEX
  8
0
 10
179.106
 20
89.6982
 30
0.0
 40
0.5
 41
0.5
  0
VERTEX
  8
0
 10
178.824
 20
89.6982
 30
0.0
 40
0.5
 41
0.5
  0
VERTEX
  8
0
 10
178.824
 20
92.2961
 30
0.0
 40
0.5
 41
0.5
  0
VERTEX
  8
0
 10
179.106
 20
92.2961
 30
0.0
 40
0.5
 41
0.5
  0
SEQEND
  8
0
  0
POLYLINE
8
0
 62
     0
 66
     1
 10
0
 20
0
 30
0.0
 70
     1
 40
0.5
 41
0.5
  0
VERTEX
  8
0
 10
180.451
 20
90.1692
 30
0.0
 40
0.5
 41
0.5
  0
VERTEX
  8
0
 10
180.685
 20
90.0522
 30
0.0
 40
0.5
 41
0.5
  0
VERTEX
  8
0
 10
180.65
 20
89.9893
 30
0.0
 40
0.5
 41
0.5
  0
VERTEX
  8
0
 10
180.61
 20
89.9263
 30
0.0
 40
0.5
 41
0.5
  0
VERTEX
  8
0
 10
180.403
 20
89.7358
 30
0.0
 40
0.5
 41
0.5
  0
VERTEX
  8
0
 10
180.025
 20
89.6501
 30
0.0
 40
0.5
 41
0.5
  0
VERTEX
  8
0
 10
179.564
 20
89.8633
 30
0.0
 40
0.5
 41
0.5
  0
VERTEX
  8
0
 10
179.365
 20
90.3342
 30
0.0
 40
0.5
 41
0.5
  0
VERTEX
  8
0
 10
179.363
 20
90.3701
 30
0.0
 40
0.5
 41
0.5
  0
VERTEX
  8
0
 10
179.362
 20
90.4063
 30
0.0
 40
0.5
 41
0.5
  0
VERTEX
  8
0
 10
179.362
 20
90.4287
 30
0.0
 40
0.5
 41
0.5
  0
VERTEX
  8
0
 10
179.362
 20
90.4512
 30
0.0
 40
0.5
 41
0.5
  0
VERTEX
  8
0
 10
179.546
 20
90.9597
 30
0.0
 40
0.5
 41
0.5
  0
VERTEX
  8
0
 10
180.049
 20
91.1833
 30
0.0
 40
0.5
 41
0.5
  0
VERTEX
  8
0
 10
180.485
 20
91.0198
 30
0.0
 40
0.5
 41
0.5
  0
VERTEX
  8
0
 10
180.682
 20
90.6611
 30
0.0
 40
0.5
 41
0.5
  0
VERTEX
  8
0
 10
180.704
 20
90.5398
 30
0.0
 40
0.5
 41
0.5
  0
VERTEX
  8
0
 10
180.712
 20
90.4243
 30
0.0
 40
0.5
 41
0.5
  0
VERTEX
  8
0
 10
180.712
 20
90.3882
 30
0.0
 40
0.5
 41
0.5
  0
VERTEX
  8
0
 10
180.709
 20
90.3552
 30
0.0
 40
0.5
 41
0.5
  0
VERTEX
  8
0
 10
179.647
 20
90.3582
 30
0.0
 40
0.5
 41
0.5
  0
VERTEX
  8
0
 10
179.771
 20
90.0356
 30
0.0
 40
0.5
 41
0.5
  0
VERTEX
  8
0
 10
180.073
 20
89.9082
 30
0.0
 40
0.5
 41
0.5
  0
VERTEX
  8
0
 10
180.116
 20
89.9111
 30
0.0
 40
0.5
 41
0.5
  0
VERTEX
  8
0
 10
180.163
 20
89.9202
 30
0.0
 40
0.5
 41
0.5
  0
VERTEX
  8
0
 10
180.329
 20
90.0042
 30
0.0
 40
0.5
 41
0.5
  0
VERTEX
  8
0
 10
180.451
 20
90.1663
 30
0.0
 40
0.5
 41
0.5
  0
VERTEX
  8
0
 10
180.451
 20
90.1692
 30
0.0
 40
0.5
 41
0.5
  0
SEQEND
  8
0
  0
POLYLINE
8
0
 62
     0
 66
     1
 10
0
 20
0
 30
0.0
 70
     1
 40
0.5
 41
0.5
  0
VERTEX
  8
0
 10
180.427
 20
90.5713
 30
0.0
 40
0.5
 41
0.5
  0
VERTEX
  8
0
 10
180.308
 20
90.8367
 30
0.0
 40
0.5
 41
0.5
  0
VERTEX
  8
0
 10
180.049
 20
90.9463
 30
0.0
 40
0.5
 41
0.5
  0
VERTEX
  8
0
 10
179.98
 20
90.9387
 30
0.0
 40
0.5
 41
0.5
  0
VERTEX
  8
0
 10
179.908
 20
90.9163
 30
0.0
 40
0.5
 41
0.5
  0
VERTEX
  8
0
 10
179.746
 20
90.8008
 30
0.0
 40
0.5
 41
0.5
  0
VERTEX
  8
0
 10
179.647
 20
90.5684
 30
0.0
 40
0.5
 41
0.5
  0
VERTEX
  8
0
 10
180.427
 20
90.5713
 30
0.0
 40
0.5
 41
0.5
  0
SEQEND
  8
0
  0
POLYLINE
8
0
 62
     0
 66
     1
 10
0
 20
0
 30
0.0
 70
     1
 40
0.5
 41
0.5
  0
VERTEX
  8
0
 10
180.851
 20
90.8562
 30
0.0
 40
0.5
 41
0.5
  0
VERTEX
  8
0
 10
180.851
 20
91.0933
 30
0.0
 40
0.5
 41
0.5
  0
VERTEX
  8
0
 10
180.97
 20
91.0933
 30
0.0
 40
0.5
 41
0.5
  0
VERTEX
  8
0
 10
180.97
 20
91.7773
 30
0.0
 40
0.5
 41
0.5
  0
VERTEX
  8
0
 10
180.973
 20
91.8882
 30
0.0
 40
0.5
 41
0.5
  0
VERTEX
  8
0
 10
180.991
 20
92.0293
 30
0.0
 40
0.5
 41
0.5
  0
VERTEX
  8
0
 10
181.104
 20
92.2498
 30
0.0
 40
0.5
 41
0.5
  0
VERTEX
  8
0
 10
181.382
 20
92.3503
 30
0.0
 40
0.5
 41
0.5
  0
VERTEX
  8
0
 10
181.487
 20
92.3413
 30
0.0
 40
0.5
 41
0.5
  0
VERTEX
  8
0
 10
181.606
 20
92.3171
 30
0.0
 40
0.5
 41
0.5
  0
VERTEX
  8
0
 10
181.606
 20
92.0383
 30
0.0
 40
0.5
 41
0.5
  0
VERTEX
  8
0
 10
181.513
 20
92.0803
 30
0.0
 40
0.5
 41
0.5
  0
VERTEX
  8
0
 10
181.427
 20
92.0952
 30
0.0
 40
0.5
 41
0.5
  0
VERTEX
  8
0
 10
181.285
 20
92.0293
 30
0.0
 40
0.5
 41
0.5
  0
VERTEX
  8
0
 10
181.229
 20
91.8223
 30
0.0
 40
0.5
 41
0.5
  0
VERTEX
  8
0
 10
181.229
 20
91.0933
 30
0.0
 40
0.5
 41
0.5
  0
VERTEX
  8
0
 10
181.606
 20
91.0933
 30
0.0
 40
0.5
 41
0.5
  0
VERTEX
  8
0
 10
181.606
 20
90.8562
 30
0.0
 40
0.5
 41
0.5
  0
VERTEX
  8
0
 10
181.229
 20
90.8562
 30
0.0
 40
0.5
 41
0.5
  0
VERTEX
  8
0
 10
181.229
 20
89.6982
 30
0.0
 40
0.5
 41
0.5
  0
VERTEX
  8
0
 10
180.97
 20
89.6982
 30
0.0
 40
0.5
 41
0.5
  0
VERTEX
  8
0
 10
180.97
 20
90.8562
 30
0.0
 40
0.5
 41
0.5
  0
VERTEX
  8
0
 10
180.851
 20
90.8562
 30
0.0
 40
0.5
 41
0.5
  0
SEQEND
  8
0
  0
POLYLINE
8
0
 62
     0
 66
     1
 10
0
 20
0
 30
0.0
 70
     1
 40
0.5
 41
0.5
  0
VERTEX
  8
0
 10
181.801
 20
91.6123
 30
0.0
 40
0.5
 41
0.5
  0
VERTEX
  8
0
 10
182.059
 20
91.6123
 30
0.0
 40
0.5
 41
0.5
  0
VERTEX
  8
0
 10
182.059
 20
91.0933
 30
0.0
 40
0.5
 41
0.5
  0
VERTEX
  8
0
 10
182.344
 20
91.0933
 30
0.0
 40
0.5
 41
0.5
  0
VERTEX
  8
0
 10
182.344
 20
90.8323
 30
0.0
 40
0.5
 41
0.5
  0
VERTEX
  8
0
 10
182.059
 20
90.8323
 30
0.0
 40
0.5
 41
0.5
  0
VERTEX
  8
0
 10
182.059
 20
89.6982
 30
0.0
 40
0.5
 41
0.5
  0
VERTEX
  8
0
 10
181.801
 20
89.6982
 30
0.0
 40
0.5
 41
0.5
  0
VERTEX
  8
0
 10
181.801
 20
90.8323
 30
0.0
 40
0.5
 41
0.5
  0
VERTEX
  8
0
 10
181.636
 20
90.8323
 30
0.0
 40
0.5
 41
0.5
  0
VERTEX
  8
0
 10
181.636
 20
91.0933
 30
0.0
 40
0.5
 41
0.5
  0
VERTEX
  8
0
 10
181.801
 20
91.0933
 30
0.0
 40
0.5
 41
0.5
  0
VERTEX
  8
0
 10
181.801
 20
91.6123
 30
0.0
 40
0.5
 41
0.5
  0
SEQEND
  8
0
  0
POLYLINE
8
0
 62
     0
 66
     1
 10
0
 20
0
 30
0.0
 70
     1
 40
0.5
 41
0.5
  0
VERTEX
  8
0
 10
206.394
 20
90.8801
 30
0.0
 40
0.5
 41
0.5
  0
VERTEX
  8
0
 10
206.574
 20
91.0588
 30
0.0
 40
0.5
 41
0.5
  0
VERTEX
  8
0
 10
206.775
 20
91.1172
 30
0.0
 40
0.5
 41
0.5
  0
VERTEX
  8
0
 10
206.891
 20
91.1038
 30
0.0
 40
0.5
 41
0.5
  0
VERTEX
  8
0
 10
207.01
 20
91.0662
 30
0.0
 40
0.5
 41
0.5
  0
VERTEX
  8
0
 10
206.868
 20
90.8083
 30
0.0
 40
0.5
 41
0.5
  0
VERTEX
  8
0
 10
206.81
 20
90.8398
 30
0.0
 40
0.5
 41
0.5
  0
VERTEX
  8
0
 10
206.748
 20
90.8623
 30
0.0
 40
0.5
 41
0.5
  0
VERTEX
  8
0
 10
206.719
 20
90.8667
 30
0.0
 40
0.5
 41
0.5
  0
VERTEX
  8
0
 10
206.688
 20
90.8682
 30
0.0
 40
0.5
 41
0.5
  0
VERTEX
  8
0
 10
206.495
 20
90.7842
 30
0.0
 40
0.5
 41
0.5
  0
VERTEX
  8
0
 10
206.394
 20
90.5232
 30
0.0
 40
0.5
 41
0.5
  0
VERTEX
  8
0
 10
206.394
 20
89.6982
 30
0.0
 40
0.5
 41
0.5
  0
VERTEX
  8
0
 10
206.112
 20
89.6982
 30
0.0
 40
0.5
 41
0.5
  0
VERTEX
  8
0
 10
206.112
 20
91.0933
 30
0.0
 40
0.5
 41
0.5
  0
VERTEX
  8
0
 10
206.394
 20
91.0933
 30
0.0
 40
0.5
 41
0.5
  0
VERTEX
  8
0
 10
206.394
 20
90.8801
 30
0.0
 40
0.5
 41
0.5
  0
SEQEND
  8
0
  0
POLYLINE
8
0
 62
     0
 66
     1
 10
0
 20
0
 30
0.0
 70
     1
 40
0.5
 41
0.5
  0
VERTEX
  8
0
 10
207.5
 20
91.0933
 30
0.0
 40
0.5
 41
0.5
  0
VERTEX
  8
0
 10
207.5
 20
89.6982
 30
0.0
 40
0.5
 41
0.5
  0
VERTEX
  8
0
 10
207.218
 20
89.6982
 30
0.0
 40
0.5
 41
0.5
  0
VERTEX
  8
0
 10
207.218
 20
91.0933
 30
0.0
 40
0.5
 41
0.5
  0
VERTEX
  8
0
 10
207.5
 20
91.0933
 30
0.0
 40
0.5
 41
0.5
  0
SEQEND
  8
0
  0
POLYLINE
8
0
 62
     0
 66
     1
 10
0
 20
0
 30
0.0
 70
     1
 40
0.5
 41
0.5
  0
VERTEX
  8
0
 10
207.359
 20
91.9182
 30
0.0
 40
0.5
 41
0.5
  0
VERTEX
  8
0
 10
207.488
 20
91.8582
 30
0.0
 40
0.5
 41
0.5
  0
VERTEX
  8
0
 10
207.53
 20
91.7502
 30
0.0
 40
0.5
 41
0.5
  0
VERTEX
  8
0
 10
207.53
 20
91.7458
 30
0.0
 40
0.5
 41
0.5
  0
VERTEX
  8
0
 10
207.53
 20
91.7412
 30
0.0
 40
0.5
 41
0.5
  0
VERTEX
  8
0
 10
207.48
 20
91.6182
 30
0.0
 40
0.5
 41
0.5
  0
VERTEX
  8
0
 10
207.359
 20
91.5613
 30
0.0
 40
0.5
 41
0.5
  0
VERTEX
  8
0
 10
207.227
 20
91.6152
 30
0.0
 40
0.5
 41
0.5
  0
VERTEX
  8
0
 10
207.182
 20
91.7354
 30
0.0
 40
0.5
 41
0.5
  0
VERTEX
  8
0
 10
207.224
 20
91.8596
 30
0.0
 40
0.5
 41
0.5
  0
VERTEX
  8
0
 10
207.359
 20
91.9153
 30
0.0
 40
0.5
 41
0.5
  0
VERTEX
  8
0
 10
207.359
 20
91.9182
 30
0.0
 40
0.5
 41
0.5
  0
SEQEND
  8
0
  0
POLYLINE
8
0
 62
     0
 66
     1
 10
0
 20
0
 30
0.0
 70
     1
 40
0.5
 41
0.5
  0
VERTEX
  8
0
 10
208.984
 20
90.8801
 30
0.0
 40
0.5
 41
0.5
  0
VERTEX
  8
0
 10
208.984
 20
91.0933
 30
0.0
 40
0.5
 41
0.5
  0
VERTEX
  8
0
 10
209.269
 20
91.0933
 30
0.0
 40
0.5
 41
0.5
  0
VERTEX
  8
0
 10
209.269
 20
89.6982
 30
0.0
 40
0.5
 41
0.5
  0
VERTEX
  8
0
 10
209.083
 20
89.0623
 30
0.0
 40
0.5
 41
0.5
  0
VERTEX
  8
0
 10
208.675
 20
88.8972
 30
0.0
 40
0.5
 41
0.5
  0
VERTEX
  8
0
 10
208.616
 20
88.8958
 30
0.0
 40
0.5
 41
0.5
  0
VERTEX
  8
0
 10
208.561
 20
88.8943
 30
0.0
 40
0.5
 41
0.5
  0
VERTEX
  8
0
 10
208.079
 20
89.0713
 30
0.0
 40
0.5
 41
0.5
  0
VERTEX
  8
0
 10
207.898
 20
89.5332
 30
0.0
 40
0.5
 41
0.5
  0
VERTEX
  8
0
 10
208.159
 20
89.5332
 30
0.0
 40
0.5
 41
0.5
  0
VERTEX
  8
0
 10
208.163
 20
89.4539
 30
0.0
 40
0.5
 41
0.5
  0
VERTEX
  8
0
 10
208.186
 20
89.3562
 30
0.0
 40
0.5
 41
0.5
  0
VERTEX
  8
0
 10
208.306
 20
89.2017
 30
0.0
 40
0.5
 41
0.5
  0
VERTEX
  8
0
 10
208.582
 20
89.1313
 30
0.0
 40
0.5
 41
0.5
  0
VERTEX
  8
0
 10
208.61
 20
89.1328
 30
0.0
 40
0.5
 41
0.5
  0
VERTEX
  8
0
 10
208.639
 20
89.1343
 30
0.0
 40
0.5
 41
0.5
  0
VERTEX
  8
0
 10
208.876
 20
89.2378
 30
0.0
 40
0.5
 41
0.5
  0
VERTEX
  8
0
 10
208.984
 20
89.5332
 30
0.0
 40
0.5
 41
0.5
  0
VERTEX
  8
0
 10
208.984
 20
89.8872
 30
0.0
 40
0.5
 41
0.5
  0
VERTEX
  8
0
 10
208.958
 20
89.8467
 30
0.0
 40
0.5
 41
0.5
  0
VERTEX
  8
0
 10
208.93
 20
89.8093
 30
0.0
 40
0.5
 41
0.5
  0
VERTEX
  8
0
 10
208.78
 20
89.6997
 30
0.0
 40
0.5
 41
0.5
  0
VERTEX
  8
0
 10
208.465
 20
89.6501
 30
0.0
 40
0.5
 41
0.5
  0
VERTEX
  8
0
 10
208.004
 20
89.8618
 30
0.0
 40
0.5
 41
0.5
  0
VERTEX
  8
0
 10
207.826
 20
90.4272
 30
0.0
 40
0.5
 41
0.5
  0
VERTEX
  8
0
 10
207.826
 20
90.4587
 30
0.0
 40
0.5
 41
0.5
  0
VERTEX
  8
0
 10
207.829
 20
90.4902
 30
0.0
 40
0.5
 41
0.5
  0
VERTEX
  8
0
 10
208.031
 20
90.9507
 30
0.0
 40
0.5
 41
0.5
  0
VERTEX
  8
0
 10
208.513
 20
91.1592
 30
0.0
 40
0.5
 41
0.5
  0
VERTEX
  8
0
 10
208.619
 20
91.1458
 30
0.0
 40
0.5
 41
0.5
  0
VERTEX
  8
0
 10
208.75
 20
91.0991
 30
0.0
 40
0.5
 41
0.5
  0
VERTEX
  8
0
 10
208.877
 20
91.0122
 30
0.0
 40
0.5
 41
0.5
  0
VERTEX
  8
0
 10
208.984
 20
90.8772
 30
0.0
 40
0.5
 41
0.5
  0
VERTEX
  8
0
 10
208.984
 20
90.8801
 30
0.0
 40
0.5
 41
0.5
  0
SEQEND
  8
0
  0
POLYLINE
8
0
 62
     0
 66
     1
 10
0
 20
0
 30
0.0
 70
     1
 40
0.5
 41
0.5
  0
VERTEX
  8
0
 10
209.008
 20
90.4063
 30
0.0
 40
0.5
 41
0.5
  0
VERTEX
  8
0
 10
208.907
 20
90.7559
 30
0.0
 40
0.5
 41
0.5
  0
VERTEX
  8
0
 10
208.687
 20
90.9043
 30
0.0
 40
0.5
 41
0.5
  0
VERTEX
  8
0
 10
208.622
 20
90.9177
 30
0.0
 40
0.5
 41
0.5
  0
VERTEX
  8
0
 10
208.561
 20
90.9221
 30
0.0
 40
0.5
 41
0.5
  0
VERTEX
  8
0
 10
208.219
 20
90.7617
 30
0.0
 40
0.5
 41
0.5
  0
VERTEX
  8
0
 10
208.105
 20
90.4063
 30
0.0
 40
0.5
 41
0.5
  0
VERTEX
  8
0
 10
208.214
 20
90.0479
 30
0.0
 40
0.5
 41
0.5
  0
VERTEX
  8
0
 10
208.537
 20
89.8843
 30
0.0
 40
0.5
 41
0.5
  0
VERTEX
  8
0
 10
208.865
 20
89.9998
 30
0.0
 40
0.5
 41
0.5
  0
VERTEX
  8
0
 10
209.011
 20
90.3523
 30
0.0
 40
0.5
 41
0.5
  0
VERTEX
  8
0
 10
209.011
 20
90.3643
 30
0.0
 40
0.5
 41
0.5
  0
VERTEX
  8
0
 10
209.011
 20
90.3792
 30
0.0
 40
0.5
 41
0.5
  0
VERTEX
  8
0
 10
209.008
 20
90.3914
 30
0.0
 40
0.5
 41
0.5
  0
VERTEX
  8
0
 10
209.008
 20
90.4033
 30
0.0
 40
0.5
 41
0.5
  0
VERTEX
  8
0
 10
209.008
 20
90.4063
 30
0.0
 40
0.5
 41
0.5
  0
SEQEND
  8
0
  0
POLYLINE
8
0
 62
     0
 66
     1
 10
0
 20
0
 30
0.0
 70
     1
 40
0.5
 41
0.5
  0
VERTEX
  8
0
 10
209.811
 20
92.2961
 30
0.0
 40
0.5
 41
0.5
  0
VERTEX
  8
0
 10
209.811
 20
90.9253
 30
0.0
 40
0.5
 41
0.5
  0
VERTEX
  8
0
 10
209.996
 20
91.0947
 30
0.0
 40
0.5
 41
0.5
  0
VERTEX
  8
0
 10
210.235
 20
91.1592
 30
0.0
 40
0.5
 41
0.5
  0
VERTEX
  8
0
 10
210.59
 20
91.0483
 30
0.0
 40
0.5
 41
0.5
  0
VERTEX
  8
0
 10
210.732
 20
90.6162
 30
0.0
 40
0.5
 41
0.5
  0
VERTEX
  8
0
 10
210.732
 20
89.6982
 30
0.0
 40
0.5
 41
0.5
  0
VERTEX
  8
0
 10
210.471
 20
89.6982
 30
0.0
 40
0.5
 41
0.5
  0
VERTEX
  8
0
 10
210.471
 20
90.6191
 30
0.0
 40
0.5
 41
0.5
  0
VERTEX
  8
0
 10
210.389
 20
90.8381
 30
0.0
 40
0.5
 41
0.5
  0
VERTEX
  8
0
 10
210.166
 20
90.9011
 30
0.0
 40
0.5
 41
0.5
  0
VERTEX
  8
0
 10
209.891
 20
90.7979
 30
0.0
 40
0.5
 41
0.5
  0
VERTEX
  8
0
 10
209.811
 20
90.4993
 30
0.0
 40
0.5
 41
0.5
  0
VERTEX
  8
0
 10
209.811
 20
89.6982
 30
0.0
 40
0.5
 41
0.5
  0
VERTEX
  8
0
 10
209.526
 20
89.6982
 30
0.0
 40
0.5
 41
0.5
  0
VERTEX
  8
0
 10
209.526
 20
92.2961
 30
0.0
 40
0.5
 41
0.5
  0
VERTEX
  8
0
 10
209.811
 20
92.2961
 30
0.0
 40
0.5
 41
0.5
  0
SEQEND
  8
0
  0
POLYLINE
8
0
 62
     0
 66
     1
 10
0
 20
0
 30
0.0
 70
     1
 40
0.5
 41
0.5
  0
VERTEX
  8
0
 10
211.181
 20
91.6123
 30
0.0
 40
0.5
 41
0.5
  0
VERTEX
  8
0
 10
211.439
 20
91.6123
 30
0.0
 40
0.5
 41
0.5
  0
VERTEX
  8
0
 10
211.439
 20
91.0933
 30
0.0
 40
0.5
 41
0.5
  0
VERTEX
  8
0
 10
211.724
 20
91.0933
 30
0.0
 40
0.5
 41
0.5
  0
VERTEX
  8
0
 10
211.724
 20
90.8323
 30
0.0
 40
0.5
 41
0.5
  0
VERTEX
  8
0
 10
211.439
 20
90.8323
 30
0.0
 40
0.5
 41
0.5
  0
VERTEX
  8
0
 10
211.439
 20
89.6982
 30
0.0
 40
0.5
 41
0.5
  0
VERTEX
  8
0
 10
211.181
 20
89.6982
 30
0.0
 40
0.5
 41
0.5
  0
VERTEX
  8
0
 10
211.181
 20
90.8323
 30
0.0
 40
0.5
 41
0.5
  0
VERTEX
  8
0
 10
211.016
 20
90.8323
 30
0.0
 40
0.5
 41
0.5
  0
VERTEX
  8
0
 10
211.016
 20
91.0933
 30
0.0
 40
0.5
 41
0.5
  0
VERTEX
  8
0
 10
211.181
 20
91.0933
 30
0.0
 40
0.5
 41
0.5
  0
VERTEX
  8
0
 10
211.181
 20
91.6123
 30
0.0
 40
0.5
 41
0.5
  0
SEQEND
  8
0
  0
POLYLINE
8
0
 62
     0
 66
     1
 10
0
 20
0
 30
0.0
 70
     1
 40
0.5
 41
0.5
  0
VERTEX
  8
0
 10
184.663
 20
77.4316
 30
0.0
 40
0.5
 41
0.5
  0
VERTEX
  8
0
 10
184.901
 20
77.4316
 30
0.0
 40
0.5
 41
0.5
  0
VERTEX
  8
0
 10
184.901
 20
76.9192
 30
0.0
 40
0.5
 41
0.5
  0
VERTEX
  8
0
 10
185.431
 20
76.9192
 30
0.0
 40
0.5
 41
0.5
  0
VERTEX
  8
0
 10
185.431
 20
76.7041
 30
0.0
 40
0.5
 41
0.5
  0
VERTEX
  8
0
 10
184.901
 20
76.7041
 30
0.0
 40
0.5
 41
0.5
  0
VERTEX
  8
0
 10
184.901
 20
76.1716
 30
0.0
 40
0.5
 41
0.5
  0
VERTEX
  8
0
 10
184.663
 20
76.1716
 30
0.0
 40
0.5
 41
0.5
  0
VERTEX
  8
0
 10
184.663
 20
76.7041
 30
0.0
 40
0.5
 41
0.5
  0
VERTEX
  8
0
 10
184.151
 20
76.7041
 30
0.0
 40
0.5
 41
0.5
  0
VERTEX
  8
0
 10
184.151
 20
76.9192
 30
0.0
 40
0.5
 41
0.5
  0
VERTEX
  8
0
 10
184.663
 20
76.9192
 30
0.0
 40
0.5
 41
0.5
  0
VERTEX
  8
0
 10
184.663
 20
77.4316
 30
0.0
 40
0.5
 41
0.5
  0
SEQEND
  8
0
  0
POLYLINE
8
0
 62
     0
 66
     1
 10
0
 20
0
 30
0.0
 70
     1
 40
0.5
 41
0.5
  0
VERTEX
  8
0
 10
185.784
 20
77.8442
 30
0.0
 40
0.5
 41
0.5
  0
VERTEX
  8
0
 10
185.922
 20
78.0815
 30
0.0
 40
0.5
 41
0.5
  0
VERTEX
  8
0
 10
186.337
 20
78.0815
 30
0.0
 40
0.5
 41
0.5
  0
VERTEX
  8
0
 10
186.337
 20
76.1716
 30
0.0
 40
0.5
 41
0.5
  0
VERTEX
  8
0
 10
186.099
 20
76.1716
 30
0.0
 40
0.5
 41
0.5
  0
VERTEX
  8
0
 10
186.099
 20
77.8442
 30
0.0
 40
0.5
 41
0.5
  0
VERTEX
  8
0
 10
185.784
 20
77.8442
 30
0.0
 40
0.5
 41
0.5
  0
SEQEND
  8
0
  0
POLYLINE
8
0
 62
     0
 66
     1
 10
0
 20
0
 30
0.0
 70
     1
 40
0.5
 41
0.5
  0
VERTEX
  8
0
 10
187.89
 20
77.2141
 30
0.0
 40
0.5
 41
0.5
  0
VERTEX
  8
0
 10
187.998
 20
77.3828
 30
0.0
 40
0.5
 41
0.5
  0
VERTEX
  8
0
 10
188.03
 20
77.5342
 30
0.0
 40
0.5
 41
0.5
  0
VERTEX
  8
0
 10
187.929
 20
77.7642
 30
0.0
 40
0.5
 41
0.5
  0
VERTEX
  8
0
 10
187.7
 20
77.8616
 30
0.0
 40
0.5
 41
0.5
  0
VERTEX
  8
0
 10
187.687
 20
77.8616
 30
0.0
 40
0.5
 41
0.5
  0
VERTEX
  8
0
 10
187.673
 20
77.8616
 30
0.0
 40
0.5
 41
0.5
  0
VERTEX
  8
0
 10
187.422
 20
77.7717
 30
0.0
 40
0.5
 41
0.5
  0
VERTEX
  8
0
 10
187.315
 20
77.5742
 30
0.0
 40
0.5
 41
0.5
  0
VERTEX
  8
0
 10
187.315
 20
77.5642
 30
0.0
 40
0.5
 41
0.5
  0
VERTEX
  8
0
 10
187.315
 20
77.5542
 30
0.0
 40
0.5
 41
0.5
  0
VERTEX
  8
0
 10
187.315
 20
77.5479
 30
0.0
 40
0.5
 41
0.5
  0
VERTEX
  8
0
 10
187.318
 20
77.5417
 30
0.0
 40
0.5
 41
0.5
  0
VERTEX
  8
0
 10
187.318
 20
77.5342
 30
0.0
 40
0.5
 41
0.5
  0
VERTEX
  8
0
 10
187.318
 20
77.5266
 30
0.0
 40
0.5
 41
0.5
  0
VERTEX
  8
0
 10
187.063
 20
77.5291
 30
0.0
 40
0.5
 41
0.5
  0
VERTEX
  8
0
 10
187.233
 20
77.9141
 30
0.0
 40
0.5
 41
0.5
  0
VERTEX
  8
0
 10
187.653
 20
78.0791
 30
0.0
 40
0.5
 41
0.5
  0
VERTEX
  8
0
 10
187.668
 20
78.0791
 30
0.0
 40
0.5
 41
0.5
  0
VERTEX
  8
0
 10
187.683
 20
78.0791
 30
0.0
 40
0.5
 41
0.5
  0
VERTEX
  8
0
 10
188.125
 20
77.9229
 30
0.0
 40
0.5
 41
0.5
  0
VERTEX
  8
0
 10
188.293
 20
77.5442
 30
0.0
 40
0.5
 41
0.5
  0
VERTEX
  8
0
 10
188.28
 20
77.4277
 30
0.0
 40
0.5
 41
0.5
  0
VERTEX
  8
0
 10
188.24
 20
77.3115
 30
0.0
 40
0.5
 41
0.5
  0
VERTEX
  8
0
 10
188.192
 20
77.2217
 30
0.0
 40
0.5
 41
0.5
  0
VERTEX
  8
0
 10
188.125
 20
77.134
 30
0.0
 40
0.5
 41
0.5
  0
VERTEX
  8
0
 10
187.495
 20
76.3892
 30
0.0
 40
0.5
 41
0.5
  0
VERTEX
  8
0
 10
188.263
 20
76.3892
 30
0.0
 40
0.5
 41
0.5
  0
VERTEX
  8
0
 10
188.263
 20
76.1716
 30
0.0
 40
0.5
 41
0.5
  0
VERTEX
  8
0
 10
187.043
 20
76.1716
 30
0.0
 40
0.5
 41
0.5
  0
VERTEX
  8
0
 10
187.89
 20
77.2141
 30
0.0
 40
0.5
 41
0.5
  0
SEQEND
  8
0
  0
POLYLINE
8
0
 62
     0
 66
     1
 10
0
 20
0
 30
0.0
 70
     1
 40
0.5
 41
0.5
  0
VERTEX
  8
0
 10
189.601
 20
78.3567
 30
0.0
 40
0.5
 41
0.5
  0
VERTEX
  8
0
 10
189.601
 20
76.1716
 30
0.0
 40
0.5
 41
0.5
  0
VERTEX
  8
0
 10
189.384
 20
76.1716
 30
0.0
 40
0.5
 41
0.5
  0
VERTEX
  8
0
 10
189.384
 20
76.3691
 30
0.0
 40
0.5
 41
0.5
  0
VERTEX
  8
0
 10
189.301
 20
76.2605
 30
0.0
 40
0.5
 41
0.5
  0
VERTEX
  8
0
 10
189.211
 20
76.1892
 30
0.0
 40
0.5
 41
0.5
  0
VERTEX
  8
0
 10
189.091
 20
76.144
 30
0.0
 40
0.5
 41
0.5
  0
VERTEX
  8
0
 10
188.991
 20
76.1316
 30
0.0
 40
0.5
 41
0.5
  0
VERTEX
  8
0
 10
188.976
 20
76.1316
 30
0.0
 40
0.5
 41
0.5
  0
VERTEX
  8
0
 10
188.961
 20
76.1316
 30
0.0
 40
0.5
 41
0.5
  0
VERTEX
  8
0
 10
188.616
 20
76.2502
 30
0.0
 40
0.5
 41
0.5
  0
VERTEX
  8
0
 10
188.439
 20
76.519
 30
0.0
 40
0.5
 41
0.5
  0
VERTEX
  8
0
 10
188.41
 20
76.6328
 30
0.0
 40
0.5
 41
0.5
  0
VERTEX
  8
0
 10
188.401
 20
76.7393
 30
0.0
 40
0.5
 41
0.5
  0
VERTEX
  8
0
 10
188.563
 20
77.2129
 30
0.0
 40
0.5
 41
0.5
  0
VERTEX
  8
0
 10
188.919
 20
77.3867
 30
0.0
 40
0.5
 41
0.5
  0
VERTEX
  8
0
 10
188.945
 20
77.3892
 30
0.0
 40
0.5
 41
0.5
  0
VERTEX
  8
0
 10
188.971
 20
77.3892
 30
0.0
 40
0.5
 41
0.5
  0
VERTEX
  8
0
 10
189.034
 20
77.3855
 30
0.0
 40
0.5
 41
0.5
  0
VERTEX
  8
0
 10
189.099
 20
77.374
 30
0.0
 40
0.5
 41
0.5
  0
VERTEX
  8
0
 10
189.25
 20
77.3066
 30
0.0
 40
0.5
 41
0.5
  0
VERTEX
  8
0
 10
189.366
 20
77.1741
 30
0.0
 40
0.5
 41
0.5
  0
VERTEX
  8
0
 10
189.366
 20
78.3567
 30
0.0
 40
0.5
 41
0.5
  0
VERTEX
  8
0
 10
189.601
 20
78.3567
 30
0.0
 40
0.5
 41
0.5
  0
SEQEND
  8
0
  0
POLYLINE
8
0
 62
     0
 66
     1
 10
0
 20
0
 30
0.0
 70
     1
 40
0.5
 41
0.5
  0
VERTEX
  8
0
 10
189.366
 20
76.7817
 30
0.0
 40
0.5
 41
0.5
  0
VERTEX
  8
0
 10
189.278
 20
77.0815
 30
0.0
 40
0.5
 41
0.5
  0
VERTEX
  8
0
 10
189.011
 20
77.1917
 30
0.0
 40
0.5
 41
0.5
  0
VERTEX
  8
0
 10
188.758
 20
77.0854
 30
0.0
 40
0.5
 41
0.5
  0
VERTEX
  8
0
 10
188.646
 20
76.8516
 30
0.0
 40
0.5
 41
0.5
  0
VERTEX
  8
0
 10
188.639
 20
76.7954
 30
0.0
 40
0.5
 41
0.5
  0
VERTEX
  8
0
 10
188.636
 20
76.7393
 30
0.0
 40
0.5
 41
0.5
  0
VERTEX
  8
0
 10
188.644
 20
76.6604
 30
0.0
 40
0.5
 41
0.5
  0
VERTEX
  8
0
 10
188.669
 20
76.5715
 30
0.0
 40
0.5
 41
0.5
  0
VERTEX
  8
0
 10
188.783
 20
76.4028
 30
0.0
 40
0.5
 41
0.5
  0
VERTEX
  8
0
 10
189.011
 20
76.3267
 30
0.0
 40
0.5
 41
0.5
  0
VERTEX
  8
0
 10
189.258
 20
76.4329
 30
0.0
 40
0.5
 41
0.5
  0
VERTEX
  8
0
 10
189.356
 20
76.6667
 30
0.0
 40
0.5
 41
0.5
  0
VERTEX
  8
0
 10
189.364
 20
76.7229
 30
0.0
 40
0.5
 41
0.5
  0
VERTEX
  8
0
 10
189.366
 20
76.7791
 30
0.0
 40
0.5
 41
0.5
  0
VERTEX
  8
0
 10
189.366
 20
76.7817
 30
0.0
 40
0.5
 41
0.5
  0
SEQEND
  8
0
  0
POLYLINE
8
0
 62
     0
 66
     1
 10
0
 20
0
 30
0.0
 70
     1
 40
0.5
 41
0.5
  0
VERTEX
  8
0
 10
190.133
 20
78.0417
 30
0.0
 40
0.5
 41
0.5
  0
VERTEX
  8
0
 10
190.227
 20
78.0391
 30
0.0
 40
0.5
 41
0.5
  0
VERTEX
  8
0
 10
190.326
 20
78.0342
 30
0.0
 40
0.5
 41
0.5
  0
VERTEX
  8
0
 10
190.671
 20
77.9441
 30
0.0
 40
0.5
 41
0.5
  0
VERTEX
  8
0
 10
190.841
 20
77.6067
 30
0.0
 40
0.5
 41
0.5
  0
VERTEX
  8
0
 10
190.782
 20
77.3403
 30
0.0
 40
0.5
 41
0.5
  0
VERTEX
  8
0
 10
190.606
 20
77.1917
 30
0.0
 40
0.5
 41
0.5
  0
VERTEX
  8
0
 10
190.633
 20
77.1892
 30
0.0
 40
0.5
 41
0.5
  0
VERTEX
  8
0
 10
190.661
 20
77.1816
 30
0.0
 40
0.5
 41
0.5
  0
VERTEX
  8
0
 10
190.907
 20
77.0142
 30
0.0
 40
0.5
 41
0.5
  0
VERTEX
  8
0
 10
191.018
 20
76.6816
 30
0.0
 40
0.5
 41
0.5
  0
VERTEX
  8
0
 10
190.822
 20
76.3018
 30
0.0
 40
0.5
 41
0.5
  0
VERTEX
  8
0
 10
190.328
 20
76.1716
 30
0.0
 40
0.5
 41
0.5
  0
VERTEX
  8
0
 10
189.896
 20
76.1716
 30
0.0
 40
0.5
 41
0.5
  0
VERTEX
  8
0
 10
189.896
 20
78.0417
 30
0.0
 40
0.5
 41
0.5
  0
VERTEX
  8
0
 10
190.133
 20
78.0417
 30
0.0
 40
0.5
 41
0.5
  0
SEQEND
  8
0
  0
POLYLINE
8
0
 62
     0
 66
     1
 10
0
 20
0
 30
0.0
 70
     1
 40
0.5
 41
0.5
  0
VERTEX
  8
0
 10
190.151
 20
77.0566
 30
0.0
 40
0.5
 41
0.5
  0
VERTEX
  8
0
 10
190.151
 20
76.3691
 30
0.0
 40
0.5
 41
0.5
  0
VERTEX
  8
0
 10
190.223
 20
76.3604
 30
0.0
 40
0.5
 41
0.5
  0
VERTEX
  8
0
 10
190.291
 20
76.3567
 30
0.0
 40
0.5
 41
0.5
  0
VERTEX
  8
0
 10
190.568
 20
76.4104
 30
0.0
 40
0.5
 41
0.5
  0
VERTEX
  8
0
 10
190.716
 20
76.5291
 30
0.0
 40
0.5
 41
0.5
  0
VERTEX
  8
0
 10
190.752
 20
76.6016
 30
0.0
 40
0.5
 41
0.5
  0
VERTEX
  8
0
 10
190.763
 20
76.6616
 30
0.0
 40
0.5
 41
0.5
  0
VERTEX
  8
0
 10
190.763
 20
76.6768
 30
0.0
 40
0.5
 41
0.5
  0
VERTEX
  8
0
 10
190.763
 20
76.6941
 30
0.0
 40
0.5
 41
0.5
  0
VERTEX
  8
0
 10
190.615
 20
76.9692
 30
0.0
 40
0.5
 41
0.5
  0
VERTEX
  8
0
 10
190.151
 20
77.0542
 30
0.0
 40
0.5
 41
0.5
  0
VERTEX
  8
0
 10
190.151
 20
77.0566
 30
0.0
 40
0.5
 41
0.5
  0
SEQEND
  8
0
  0
POLYLINE
8
0
 62
     0
 66
     1
 10
0
 20
0
 30
0.0
 70
     1
 40
0.5
 41
0.5
  0
VERTEX
  8
0
 10
190.151
 20
77.8643
 30
0.0
 40
0.5
 41
0.5
  0
VERTEX
  8
0
 10
190.151
 20
77.2341
 30
0.0
 40
0.5
 41
0.5
  0
VERTEX
  8
0
 10
190.192
 20
77.2292
 30
0.0
 40
0.5
 41
0.5
  0
VERTEX
  8
0
 10
190.233
 20
77.2292
 30
0.0
 40
0.5
 41
0.5
  0
VERTEX
  8
0
 10
190.511
 20
77.2979
 30
0.0
 40
0.5
 41
0.5
  0
VERTEX
  8
0
 10
190.606
 20
77.5266
 30
0.0
 40
0.5
 41
0.5
  0
VERTEX
  8
0
 10
190.606
 20
77.533
 30
0.0
 40
0.5
 41
0.5
  0
VERTEX
  8
0
 10
190.606
 20
77.5391
 30
0.0
 40
0.5
 41
0.5
  0
VERTEX
  8
0
 10
190.604
 20
77.5955
 30
0.0
 40
0.5
 41
0.5
  0
VERTEX
  8
0
 10
190.596
 20
77.6592
 30
0.0
 40
0.5
 41
0.5
  0
VERTEX
  8
0
 10
190.497
 20
77.7991
 30
0.0
 40
0.5
 41
0.5
  0
VERTEX
  8
0
 10
190.208
 20
77.8616
 30
0.0
 40
0.5
 41
0.5
  0
VERTEX
  8
0
 10
190.181
 20
77.8616
 30
0.0
 40
0.5
 41
0.5
  0
VERTEX
  8
0
 10
190.151
 20
77.8616
 30
0.0
 40
0.5
 41
0.5
  0
VERTEX
  8
0
 10
190.151
 20
77.8643
 30
0.0
 40
0.5
 41
0.5
  0
SEQEND
  8
0
  0
POLYLINE
8
0
 62
     0
 66
     1
 10
0
 20
0
 30
0.0
 70
     1
 40
0.5
 41
0.5
  0
VERTEX
  8
0
 10
170.972
 20
77.0767
 30
0.0
 40
0.5
 41
0.5
  0
VERTEX
  8
0
 10
170.972
 20
76.8792
 30
0.0
 40
0.5
 41
0.5
  0
VERTEX
  8
0
 10
170.419
 20
76.8792
 30
0.0
 40
0.5
 41
0.5
  0
VERTEX
  8
0
 10
170.419
 20
77.0767
 30
0.0
 40
0.5
 41
0.5
  0
VERTEX
  8
0
 10
170.972
 20
77.0767
 30
0.0
 40
0.5
 41
0.5
  0
SEQEND
  8
0
  0
POLYLINE
8
0
 62
     0
 66
     1
 10
0
 20
0
 30
0.0
 70
     1
 40
0.5
 41
0.5
  0
VERTEX
  8
0
 10
171.406
 20
77.8442
 30
0.0
 40
0.5
 41
0.5
  0
VERTEX
  8
0
 10
171.543
 20
78.0815
 30
0.0
 40
0.5
 41
0.5
  0
VERTEX
  8
0
 10
171.958
 20
78.0815
 30
0.0
 40
0.5
 41
0.5
  0
VERTEX
  8
0
 10
171.958
 20
76.1716
 30
0.0
 40
0.5
 41
0.5
  0
VERTEX
  8
0
 10
171.721
 20
76.1716
 30
0.0
 40
0.5
 41
0.5
  0
VERTEX
  8
0
 10
171.721
 20
77.8442
 30
0.0
 40
0.5
 41
0.5
  0
VERTEX
  8
0
 10
171.406
 20
77.8442
 30
0.0
 40
0.5
 41
0.5
  0
SEQEND
  8
0
  0
POLYLINE
8
0
 62
     0
 66
     1
 10
0
 20
0
 30
0.0
 70
     1
 40
0.5
 41
0.5
  0
VERTEX
  8
0
 10
173.512
 20
77.2141
 30
0.0
 40
0.5
 41
0.5
  0
VERTEX
  8
0
 10
173.619
 20
77.3828
 30
0.0
 40
0.5
 41
0.5
  0
VERTEX
  8
0
 10
173.652
 20
77.5342
 30
0.0
 40
0.5
 41
0.5
  0
VERTEX
  8
0
 10
173.55
 20
77.7642
 30
0.0
 40
0.5
 41
0.5
  0
VERTEX
  8
0
 10
173.322
 20
77.8616
 30
0.0
 40
0.5
 41
0.5
  0
VERTEX
  8
0
 10
173.308
 20
77.8616
 30
0.0
 40
0.5
 41
0.5
  0
VERTEX
  8
0
 10
173.294
 20
77.8616
 30
0.0
 40
0.5
 41
0.5
  0
VERTEX
  8
0
 10
173.043
 20
77.7717
 30
0.0
 40
0.5
 41
0.5
  0
VERTEX
  8
0
 10
172.937
 20
77.5742
 30
0.0
 40
0.5
 41
0.5
  0
VERTEX
  8
0
 10
172.937
 20
77.5642
 30
0.0
 40
0.5
 41
0.5
  0
VERTEX
  8
0
 10
172.937
 20
77.5542
 30
0.0
 40
0.5
 41
0.5
  0
VERTEX
  8
0
 10
172.937
 20
77.5479
 30
0.0
 40
0.5
 41
0.5
  0
VERTEX
  8
0
 10
172.939
 20
77.5417
 30
0.0
 40
0.5
 41
0.5
  0
VERTEX
  8
0
 10
172.939
 20
77.5342
 30
0.0
 40
0.5
 41
0.5
  0
VERTEX
  8
0
 10
172.939
 20
77.5266
 30
0.0
 40
0.5
 41
0.5
  0
VERTEX
  8
0
 10
172.684
 20
77.5291
 30
0.0
 40
0.5
 41
0.5
  0
VERTEX
  8
0
 10
172.854
 20
77.9141
 30
0.0
 40
0.5
 41
0.5
  0
VERTEX
  8
0
 10
173.274
 20
78.0791
 30
0.0
 40
0.5
 41
0.5
  0
VERTEX
  8
0
 10
173.289
 20
78.0791
 30
0.0
 40
0.5
 41
0.5
  0
VERTEX
  8
0
 10
173.304
 20
78.0791
 30
0.0
 40
0.5
 41
0.5
  0
VERTEX
  8
0
 10
173.747
 20
77.9229
 30
0.0
 40
0.5
 41
0.5
  0
VERTEX
  8
0
 10
173.914
 20
77.5442
 30
0.0
 40
0.5
 41
0.5
  0
VERTEX
  8
0
 10
173.902
 20
77.4277
 30
0.0
 40
0.5
 41
0.5
  0
VERTEX
  8
0
 10
173.862
 20
77.3115
 30
0.0
 40
0.5
 41
0.5
  0
VERTEX
  8
0
 10
173.813
 20
77.2217
 30
0.0
 40
0.5
 41
0.5
  0
VERTEX
  8
0
 10
173.747
 20
77.134
 30
0.0
 40
0.5
 41
0.5
  0
VERTEX
  8
0
 10
173.117
 20
76.3892
 30
0.0
 40
0.5
 41
0.5
  0
VERTEX
  8
0
 10
173.884
 20
76.3892
 30
0.0
 40
0.5
 41
0.5
  0
VERTEX
  8
0
 10
173.884
 20
76.1716
 30
0.0
 40
0.5
 41
0.5
  0
VERTEX
  8
0
 10
172.664
 20
76.1716
 30
0.0
 40
0.5
 41
0.5
  0
VERTEX
  8
0
 10
173.512
 20
77.2141
 30
0.0
 40
0.5
 41
0.5
  0
SEQEND
  8
0
  0
POLYLINE
8
0
 62
     0
 66
     1
 10
0
 20
0
 30
0.0
 70
     1
 40
0.5
 41
0.5
  0
VERTEX
  8
0
 10
175.223
 20
78.3567
 30
0.0
 40
0.5
 41
0.5
  0
VERTEX
  8
0
 10
175.223
 20
76.1716
 30
0.0
 40
0.5
 41
0.5
  0
VERTEX
  8
0
 10
175.005
 20
76.1716
 30
0.0
 40
0.5
 41
0.5
  0
VERTEX
  8
0
 10
175.005
 20
76.3691
 30
0.0
 40
0.5
 41
0.5
  0
VERTEX
  8
0
 10
174.923
 20
76.2605
 30
0.0
 40
0.5
 41
0.5
  0
VERTEX
  8
0
 10
174.833
 20
76.1892
 30
0.0
 40
0.5
 41
0.5
  0
VERTEX
  8
0
 10
174.713
 20
76.144
 30
0.0
 40
0.5
 41
0.5
  0
VERTEX
  8
0
 10
174.613
 20
76.1316
 30
0.0
 40
0.5
 41
0.5
  0
VERTEX
  8
0
 10
174.598
 20
76.1316
 30
0.0
 40
0.5
 41
0.5
  0
VERTEX
  8
0
 10
174.583
 20
76.1316
 30
0.0
 40
0.5
 41
0.5
  0
VERTEX
  8
0
 10
174.238
 20
76.2502
 30
0.0
 40
0.5
 41
0.5
  0
VERTEX
  8
0
 10
174.06
 20
76.519
 30
0.0
 40
0.5
 41
0.5
  0
VERTEX
  8
0
 10
174.031
 20
76.6328
 30
0.0
 40
0.5
 41
0.5
  0
VERTEX
  8
0
 10
174.023
 20
76.7393
 30
0.0
 40
0.5
 41
0.5
  0
VERTEX
  8
0
 10
174.184
 20
77.2129
 30
0.0
 40
0.5
 41
0.5
  0
VERTEX
  8
0
 10
174.54
 20
77.3867
 30
0.0
 40
0.5
 41
0.5
  0
VERTEX
  8
0
 10
174.566
 20
77.3892
 30
0.0
 40
0.5
 41
0.5
  0
VERTEX
  8
0
 10
174.593
 20
77.3892
 30
0.0
 40
0.5
 41
0.5
  0
VERTEX
  8
0
 10
174.655
 20
77.3855
 30
0.0
 40
0.5
 41
0.5
  0
VERTEX
  8
0
 10
174.72
 20
77.374
 30
0.0
 40
0.5
 41
0.5
  0
VERTEX
  8
0
 10
174.871
 20
77.3066
 30
0.0
 40
0.5
 41
0.5
  0
VERTEX
  8
0
 10
174.988
 20
77.1741
 30
0.0
 40
0.5
 41
0.5
  0
VERTEX
  8
0
 10
174.988
 20
78.3567
 30
0.0
 40
0.5
 41
0.5
  0
VERTEX
  8
0
 10
175.223
 20
78.3567
 30
0.0
 40
0.5
 41
0.5
  0
SEQEND
  8
0
  0
POLYLINE
8
0
 62
     0
 66
     1
 10
0
 20
0
 30
0.0
 70
     1
 40
0.5
 41
0.5
  0
VERTEX
  8
0
 10
174.988
 20
76.7817
 30
0.0
 40
0.5
 41
0.5
  0
VERTEX
  8
0
 10
174.899
 20
77.0815
 30
0.0
 40
0.5
 41
0.5
  0
VERTEX
  8
0
 10
174.633
 20
77.1917
 30
0.0
 40
0.5
 41
0.5
  0
VERTEX
  8
0
 10
174.379
 20
77.0854
 30
0.0
 40
0.5
 41
0.5
  0
VERTEX
  8
0
 10
174.268
 20
76.8516
 30
0.0
 40
0.5
 41
0.5
  0
VERTEX
  8
0
 10
174.26
 20
76.7954
 30
0.0
 40
0.5
 41
0.5
  0
VERTEX
  8
0
 10
174.258
 20
76.7393
 30
0.0
 40
0.5
 41
0.5
  0
VERTEX
  8
0
 10
174.265
 20
76.6604
 30
0.0
 40
0.5
 41
0.5
  0
VERTEX
  8
0
 10
174.29
 20
76.5715
 30
0.0
 40
0.5
 41
0.5
  0
VERTEX
  8
0
 10
174.404
 20
76.4028
 30
0.0
 40
0.5
 41
0.5
  0
VERTEX
  8
0
 10
174.633
 20
76.3267
 30
0.0
 40
0.5
 41
0.5
  0
VERTEX
  8
0
 10
174.879
 20
76.4329
 30
0.0
 40
0.5
 41
0.5
  0
VERTEX
  8
0
 10
174.978
 20
76.6667
 30
0.0
 40
0.5
 41
0.5
  0
VERTEX
  8
0
 10
174.985
 20
76.7229
 30
0.0
 40
0.5
 41
0.5
  0
VERTEX
  8
0
 10
174.988
 20
76.7791
 30
0.0
 40
0.5
 41
0.5
  0
VERTEX
  8
0
 10
174.988
 20
76.7817
 30
0.0
 40
0.5
 41
0.5
  0
SEQEND
  8
0
  0
POLYLINE
8
0
 62
     0
 66
     1
 10
0
 20
0
 30
0.0
 70
     1
 40
0.5
 41
0.5
  0
VERTEX
  8
0
 10
175.754
 20
78.0417
 30
0.0
 40
0.5
 41
0.5
  0
VERTEX
  8
0
 10
175.848
 20
78.0391
 30
0.0
 40
0.5
 41
0.5
  0
VERTEX
  8
0
 10
175.947
 20
78.0342
 30
0.0
 40
0.5
 41
0.5
  0
VERTEX
  8
0
 10
176.292
 20
77.9441
 30
0.0
 40
0.5
 41
0.5
  0
VERTEX
  8
0
 10
176.462
 20
77.6067
 30
0.0
 40
0.5
 41
0.5
  0
VERTEX
  8
0
 10
176.403
 20
77.3403
 30
0.0
 40
0.5
 41
0.5
  0
VERTEX
  8
0
 10
176.227
 20
77.1917
 30
0.0
 40
0.5
 41
0.5
  0
VERTEX
  8
0
 10
176.254
 20
77.1892
 30
0.0
 40
0.5
 41
0.5
  0
VERTEX
  8
0
 10
176.282
 20
77.1816
 30
0.0
 40
0.5
 41
0.5
  0
VERTEX
  8
0
 10
176.528
 20
77.0142
 30
0.0
 40
0.5
 41
0.5
  0
VERTEX
  8
0
 10
176.639
 20
76.6816
 30
0.0
 40
0.5
 41
0.5
  0
VERTEX
  8
0
 10
176.443
 20
76.3018
 30
0.0
 40
0.5
 41
0.5
  0
VERTEX
  8
0
 10
175.949
 20
76.1716
 30
0.0
 40
0.5
 41
0.5
  0
VERTEX
  8
0
 10
175.517
 20
76.1716
 30
0.0
 40
0.5
 41
0.5
  0
VERTEX
  8
0
 10
175.517
 20
78.0417
 30
0.0
 40
0.5
 41
0.5
  0
VERTEX
  8
0
 10
175.754
 20
78.0417
 30
0.0
 40
0.5
 41
0.5
  0
SEQEND
  8
0
  0
POLYLINE
8
0
 62
     0
 66
     1
 10
0
 20
0
 30
0.0
 70
     1
 40
0.5
 41
0.5
  0
VERTEX
  8
0
 10
175.772
 20
77.0566
 30
0.0
 40
0.5
 41
0.5
  0
VERTEX
  8
0
 10
175.772
 20
76.3691
 30
0.0
 40
0.5
 41
0.5
  0
VERTEX
  8
0
 10
175.844
 20
76.3604
 30
0.0
 40
0.5
 41
0.5
  0
VERTEX
  8
0
 10
175.912
 20
76.3567
 30
0.0
 40
0.5
 41
0.5
  0
VERTEX
  8
0
 10
176.189
 20
76.4104
 30
0.0
 40
0.5
 41
0.5
  0
VERTEX
  8
0
 10
176.337
 20
76.5291
 30
0.0
 40
0.5
 41
0.5
  0
VERTEX
  8
0
 10
176.373
 20
76.6016
 30
0.0
 40
0.5
 41
0.5
  0
VERTEX
  8
0
 10
176.385
 20
76.6616
 30
0.0
 40
0.5
 41
0.5
  0
VERTEX
  8
0
 10
176.385
 20
76.6768
 30
0.0
 40
0.5
 41
0.5
  0
VERTEX
  8
0
 10
176.385
 20
76.6941
 30
0.0
 40
0.5
 41
0.5
  0
VERTEX
  8
0
 10
176.236
 20
76.9692
 30
0.0
 40
0.5
 41
0.5
  0
VERTEX
  8
0
 10
175.772
 20
77.0542
 30
0.0
 40
0.5
 41
0.5
  0
VERTEX
  8
0
 10
175.772
 20
77.0566
 30
0.0
 40
0.5
 41
0.5
  0
SEQEND
  8
0
  0
POLYLINE
8
0
 62
     0
 66
     1
 10
0
 20
0
 30
0.0
 70
     1
 40
0.5
 41
0.5
  0
VERTEX
  8
0
 10
175.772
 20
77.8643
 30
0.0
 40
0.5
 41
0.5
  0
VERTEX
  8
0
 10
175.772
 20
77.2341
 30
0.0
 40
0.5
 41
0.5
  0
VERTEX
  8
0
 10
175.813
 20
77.2292
 30
0.0
 40
0.5
 41
0.5
  0
VERTEX
  8
0
 10
175.854
 20
77.2292
 30
0.0
 40
0.5
 41
0.5
  0
VERTEX
  8
0
 10
176.132
 20
77.2979
 30
0.0
 40
0.5
 41
0.5
  0
VERTEX
  8
0
 10
176.227
 20
77.5266
 30
0.0
 40
0.5
 41
0.5
  0
VERTEX
  8
0
 10
176.227
 20
77.533
 30
0.0
 40
0.5
 41
0.5
  0
VERTEX
  8
0
 10
176.227
 20
77.5391
 30
0.0
 40
0.5
 41
0.5
  0
VERTEX
  8
0
 10
176.226
 20
77.5955
 30
0.0
 40
0.5
 41
0.5
  0
VERTEX
  8
0
 10
176.217
 20
77.6592
 30
0.0
 40
0.5
 41
0.5
  0
VERTEX
  8
0
 10
176.118
 20
77.7991
 30
0.0
 40
0.5
 41
0.5
  0
VERTEX
  8
0
 10
175.829
 20
77.8616
 30
0.0
 40
0.5
 41
0.5
  0
VERTEX
  8
0
 10
175.802
 20
77.8616
 30
0.0
 40
0.5
 41
0.5
  0
VERTEX
  8
0
 10
175.772
 20
77.8616
 30
0.0
 40
0.5
 41
0.5
  0
VERTEX
  8
0
 10
175.772
 20
77.8643
 30
0.0
 40
0.5
 41
0.5
  0
SEQEND
  8
0
  0
POLYLINE
8
0
 62
     0
 66
     1
 10
0
 20
0
 30
0.0
 70
     1
 40
0.5
 41
0.5
  0
VERTEX
  8
0
 10
213.01
 20
77.4316
 30
0.0
 40
0.5
 41
0.5
  0
VERTEX
  8
0
 10
213.247
 20
77.4316
 30
0.0
 40
0.5
 41
0.5
  0
VERTEX
  8
0
 10
213.247
 20
76.9192
 30
0.0
 40
0.5
 41
0.5
  0
VERTEX
  8
0
 10
213.777
 20
76.9192
 30
0.0
 40
0.5
 41
0.5
  0
VERTEX
  8
0
 10
213.777
 20
76.7041
 30
0.0
 40
0.5
 41
0.5
  0
VERTEX
  8
0
 10
213.247
 20
76.7041
 30
0.0
 40
0.5
 41
0.5
  0
VERTEX
  8
0
 10
213.247
 20
76.1716
 30
0.0
 40
0.5
 41
0.5
  0
VERTEX
  8
0
 10
213.01
 20
76.1716
 30
0.0
 40
0.5
 41
0.5
  0
VERTEX
  8
0
 10
213.01
 20
76.7041
 30
0.0
 40
0.5
 41
0.5
  0
VERTEX
  8
0
 10
212.497
 20
76.7041
 30
0.0
 40
0.5
 41
0.5
  0
VERTEX
  8
0
 10
212.497
 20
76.9192
 30
0.0
 40
0.5
 41
0.5
  0
VERTEX
  8
0
 10
213.01
 20
76.9192
 30
0.0
 40
0.5
 41
0.5
  0
VERTEX
  8
0
 10
213.01
 20
77.4316
 30
0.0
 40
0.5
 41
0.5
  0
SEQEND
  8
0
  0
POLYLINE
8
0
 62
     0
 66
     1
 10
0
 20
0
 30
0.0
 70
     1
 40
0.5
 41
0.5
  0
VERTEX
  8
0
 10
214.131
 20
77.8442
 30
0.0
 40
0.5
 41
0.5
  0
VERTEX
  8
0
 10
214.268
 20
78.0815
 30
0.0
 40
0.5
 41
0.5
  0
VERTEX
  8
0
 10
214.683
 20
78.0815
 30
0.0
 40
0.5
 41
0.5
  0
VERTEX
  8
0
 10
214.683
 20
76.1716
 30
0.0
 40
0.5
 41
0.5
  0
VERTEX
  8
0
 10
214.446
 20
76.1716
 30
0.0
 40
0.5
 41
0.5
  0
VERTEX
  8
0
 10
214.446
 20
77.8442
 30
0.0
 40
0.5
 41
0.5
  0
VERTEX
  8
0
 10
214.131
 20
77.8442
 30
0.0
 40
0.5
 41
0.5
  0
SEQEND
  8
0
  0
POLYLINE
8
0
 62
     0
 66
     1
 10
0
 20
0
 30
0.0
 70
     1
 40
0.5
 41
0.5
  0
VERTEX
  8
0
 10
216.237
 20
77.2141
 30
0.0
 40
0.5
 41
0.5
  0
VERTEX
  8
0
 10
216.344
 20
77.3828
 30
0.0
 40
0.5
 41
0.5
  0
VERTEX
  8
0
 10
216.377
 20
77.5342
 30
0.0
 40
0.5
 41
0.5
  0
VERTEX
  8
0
 10
216.275
 20
77.7642
 30
0.0
 40
0.5
 41
0.5
  0
VERTEX
  8
0
 10
216.047
 20
77.8616
 30
0.0
 40
0.5
 41
0.5
  0
VERTEX
  8
0
 10
216.033
 20
77.8616
 30
0.0
 40
0.5
 41
0.5
  0
VERTEX
  8
0
 10
216.019
 20
77.8616
 30
0.0
 40
0.5
 41
0.5
  0
VERTEX
  8
0
 10
215.768
 20
77.7717
 30
0.0
 40
0.5
 41
0.5
  0
VERTEX
  8
0
 10
215.662
 20
77.5742
 30
0.0
 40
0.5
 41
0.5
  0
VERTEX
  8
0
 10
215.662
 20
77.5642
 30
0.0
 40
0.5
 41
0.5
  0
VERTEX
  8
0
 10
215.662
 20
77.5542
 30
0.0
 40
0.5
 41
0.5
  0
VERTEX
  8
0
 10
215.662
 20
77.5479
 30
0.0
 40
0.5
 41
0.5
  0
VERTEX
  8
0
 10
215.664
 20
77.5417
 30
0.0
 40
0.5
 41
0.5
  0
VERTEX
  8
0
 10
215.664
 20
77.5342
 30
0.0
 40
0.5
 41
0.5
  0
VERTEX
  8
0
 10
215.664
 20
77.5266
 30
0.0
 40
0.5
 41
0.5
  0
VERTEX
  8
0
 10
215.409
 20
77.5291
 30
0.0
 40
0.5
 41
0.5
  0
VERTEX
  8
0
 10
215.579
 20
77.9141
 30
0.0
 40
0.5
 41
0.5
  0
VERTEX
  8
0
 10
215.999
 20
78.0791
 30
0.0
 40
0.5
 41
0.5
  0
VERTEX
  8
0
 10
216.014
 20
78.0791
 30
0.0
 40
0.5
 41
0.5
  0
VERTEX
  8
0
 10
216.029
 20
78.0791
 30
0.0
 40
0.5
 41
0.5
  0
VERTEX
  8
0
 10
216.472
 20
77.9229
 30
0.0
 40
0.5
 41
0.5
  0
VERTEX
  8
0
 10
216.639
 20
77.5442
 30
0.0
 40
0.5
 41
0.5
  0
VERTEX
  8
0
 10
216.627
 20
77.4277
 30
0.0
 40
0.5
 41
0.5
  0
VERTEX
  8
0
 10
216.587
 20
77.3115
 30
0.0
 40
0.5
 41
0.5
  0
VERTEX
  8
0
 10
216.538
 20
77.2217
 30
0.0
 40
0.5
 41
0.5
  0
VERTEX
  8
0
 10
216.472
 20
77.134
 30
0.0
 40
0.5
 41
0.5
  0
VERTEX
  8
0
 10
215.842
 20
76.3892
 30
0.0
 40
0.5
 41
0.5
  0
VERTEX
  8
0
 10
216.609
 20
76.3892
 30
0.0
 40
0.5
 41
0.5
  0
VERTEX
  8
0
 10
216.609
 20
76.1716
 30
0.0
 40
0.5
 41
0.5
  0
VERTEX
  8
0
 10
215.389
 20
76.1716
 30
0.0
 40
0.5
 41
0.5
  0
VERTEX
  8
0
 10
216.237
 20
77.2141
 30
0.0
 40
0.5
 41
0.5
  0
SEQEND
  8
0
  0
POLYLINE
8
0
 62
     0
 66
     1
 10
0
 20
0
 30
0.0
 70
     1
 40
0.5
 41
0.5
  0
VERTEX
  8
0
 10
217.948
 20
78.3567
 30
0.0
 40
0.5
 41
0.5
  0
VERTEX
  8
0
 10
217.948
 20
76.1716
 30
0.0
 40
0.5
 41
0.5
  0
VERTEX
  8
0
 10
217.73
 20
76.1716
 30
0.0
 40
0.5
 41
0.5
  0
VERTEX
  8
0
 10
217.73
 20
76.3691
 30
0.0
 40
0.5
 41
0.5
  0
VERTEX
  8
0
 10
217.648
 20
76.2605
 30
0.0
 40
0.5
 41
0.5
  0
VERTEX
  8
0
 10
217.558
 20
76.1892
 30
0.0
 40
0.5
 41
0.5
  0
VERTEX
  8
0
 10
217.438
 20
76.144
 30
0.0
 40
0.5
 41
0.5
  0
VERTEX
  8
0
 10
217.338
 20
76.1316
 30
0.0
 40
0.5
 41
0.5
  0
VERTEX
  8
0
 10
217.323
 20
76.1316
 30
0.0
 40
0.5
 41
0.5
  0
VERTEX
  8
0
 10
217.308
 20
76.1316
 30
0.0
 40
0.5
 41
0.5
  0
VERTEX
  8
0
 10
216.963
 20
76.2502
 30
0.0
 40
0.5
 41
0.5
  0
VERTEX
  8
0
 10
216.785
 20
76.519
 30
0.0
 40
0.5
 41
0.5
  0
VERTEX
  8
0
 10
216.757
 20
76.6328
 30
0.0
 40
0.5
 41
0.5
  0
VERTEX
  8
0
 10
216.748
 20
76.7393
 30
0.0
 40
0.5
 41
0.5
  0
VERTEX
  8
0
 10
216.909
 20
77.2129
 30
0.0
 40
0.5
 41
0.5
  0
VERTEX
  8
0
 10
217.265
 20
77.3867
 30
0.0
 40
0.5
 41
0.5
  0
VERTEX
  8
0
 10
217.292
 20
77.3892
 30
0.0
 40
0.5
 41
0.5
  0
VERTEX
  8
0
 10
217.318
 20
77.3892
 30
0.0
 40
0.5
 41
0.5
  0
VERTEX
  8
0
 10
217.38
 20
77.3855
 30
0.0
 40
0.5
 41
0.5
  0
VERTEX
  8
0
 10
217.445
 20
77.374
 30
0.0
 40
0.5
 41
0.5
  0
VERTEX
  8
0
 10
217.596
 20
77.3066
 30
0.0
 40
0.5
 41
0.5
  0
VERTEX
  8
0
 10
217.713
 20
77.1741
 30
0.0
 40
0.5
 41
0.5
  0
VERTEX
  8
0
 10
217.713
 20
78.3567
 30
0.0
 40
0.5
 41
0.5
  0
VERTEX
  8
0
 10
217.948
 20
78.3567
 30
0.0
 40
0.5
 41
0.5
  0
SEQEND
  8
0
  0
POLYLINE
8
0
 62
     0
 66
     1
 10
0
 20
0
 30
0.0
 70
     1
 40
0.5
 41
0.5
  0
VERTEX
  8
0
 10
217.713
 20
76.7817
 30
0.0
 40
0.5
 41
0.5
  0
VERTEX
  8
0
 10
217.624
 20
77.0815
 30
0.0
 40
0.5
 41
0.5
  0
VERTEX
  8
0
 10
217.358
 20
77.1917
 30
0.0
 40
0.5
 41
0.5
  0
VERTEX
  8
0
 10
217.104
 20
77.0854
 30
0.0
 40
0.5
 41
0.5
  0
VERTEX
  8
0
 10
216.993
 20
76.8516
 30
0.0
 40
0.5
 41
0.5
  0
VERTEX
  8
0
 10
216.985
 20
76.7954
 30
0.0
 40
0.5
 41
0.5
  0
VERTEX
  8
0
 10
216.983
 20
76.7393
 30
0.0
 40
0.5
 41
0.5
  0
VERTEX
  8
0
 10
216.99
 20
76.6604
 30
0.0
 40
0.5
 41
0.5
  0
VERTEX
  8
0
 10
217.015
 20
76.5715
 30
0.0
 40
0.5
 41
0.5
  0
VERTEX
  8
0
 10
217.129
 20
76.4028
 30
0.0
 40
0.5
 41
0.5
  0
VERTEX
  8
0
 10
217.358
 20
76.3267
 30
0.0
 40
0.5
 41
0.5
  0
VERTEX
  8
0
 10
217.604
 20
76.4329
 30
0.0
 40
0.5
 41
0.5
  0
VERTEX
  8
0
 10
217.703
 20
76.6667
 30
0.0
 40
0.5
 41
0.5
  0
VERTEX
  8
0
 10
217.71
 20
76.7229
 30
0.0
 40
0.5
 41
0.5
  0
VERTEX
  8
0
 10
217.713
 20
76.7791
 30
0.0
 40
0.5
 41
0.5
  0
VERTEX
  8
0
 10
217.713
 20
76.7817
 30
0.0
 40
0.5
 41
0.5
  0
SEQEND
  8
0
  0
POLYLINE
8
0
 62
     0
 66
     1
 10
0
 20
0
 30
0.0
 70
     1
 40
0.5
 41
0.5
  0
VERTEX
  8
0
 10
218.48
 20
78.0417
 30
0.0
 40
0.5
 41
0.5
  0
VERTEX
  8
0
 10
218.573
 20
78.0391
 30
0.0
 40
0.5
 41
0.5
  0
VERTEX
  8
0
 10
218.672
 20
78.0342
 30
0.0
 40
0.5
 41
0.5
  0
VERTEX
  8
0
 10
219.017
 20
77.9441
 30
0.0
 40
0.5
 41
0.5
  0
VERTEX
  8
0
 10
219.187
 20
77.6067
 30
0.0
 40
0.5
 41
0.5
  0
VERTEX
  8
0
 10
219.128
 20
77.3403
 30
0.0
 40
0.5
 41
0.5
  0
VERTEX
  8
0
 10
218.952
 20
77.1917
 30
0.0
 40
0.5
 41
0.5
  0
VERTEX
  8
0
 10
218.98
 20
77.1892
 30
0.0
 40
0.5
 41
0.5
  0
VERTEX
  8
0
 10
219.007
 20
77.1816
 30
0.0
 40
0.5
 41
0.5
  0
VERTEX
  8
0
 10
219.253
 20
77.0142
 30
0.0
 40
0.5
 41
0.5
  0
VERTEX
  8
0
 10
219.365
 20
76.6816
 30
0.0
 40
0.5
 41
0.5
  0
VERTEX
  8
0
 10
219.168
 20
76.3018
 30
0.0
 40
0.5
 41
0.5
  0
VERTEX
  8
0
 10
218.675
 20
76.1716
 30
0.0
 40
0.5
 41
0.5
  0
VERTEX
  8
0
 10
218.242
 20
76.1716
 30
0.0
 40
0.5
 41
0.5
  0
VERTEX
  8
0
 10
218.242
 20
78.0417
 30
0.0
 40
0.5
 41
0.5
  0
VERTEX
  8
0
 10
218.48
 20
78.0417
 30
0.0
 40
0.5
 41
0.5
  0
SEQEND
  8
0
  0
POLYLINE
8
0
 62
     0
 66
     1
 10
0
 20
0
 30
0.0
 70
     1
 40
0.5
 41
0.5
  0
VERTEX
  8
0
 10
218.497
 20
77.0566
 30
0.0
 40
0.5
 41
0.5
  0
VERTEX
  8
0
 10
218.497
 20
76.3691
 30
0.0
 40
0.5
 41
0.5
  0
VERTEX
  8
0
 10
218.57
 20
76.3604
 30
0.0
 40
0.5
 41
0.5
  0
VERTEX
  8
0
 10
218.637
 20
76.3567
 30
0.0
 40
0.5
 41
0.5
  0
VERTEX
  8
0
 10
218.915
 20
76.4104
 30
0.0
 40
0.5
 41
0.5
  0
VERTEX
  8
0
 10
219.062
 20
76.5291
 30
0.0
 40
0.5
 41
0.5
  0
VERTEX
  8
0
 10
219.098
 20
76.6016
 30
0.0
 40
0.5
 41
0.5
  0
VERTEX
  8
0
 10
219.11
 20
76.6616
 30
0.0
 40
0.5
 41
0.5
  0
VERTEX
  8
0
 10
219.11
 20
76.6768
 30
0.0
 40
0.5
 41
0.5
  0
VERTEX
  8
0
 10
219.11
 20
76.6941
 30
0.0
 40
0.5
 41
0.5
  0
VERTEX
  8
0
 10
218.961
 20
76.9692
 30
0.0
 40
0.5
 41
0.5
  0
VERTEX
  8
0
 10
218.497
 20
77.0542
 30
0.0
 40
0.5
 41
0.5
  0
VERTEX
  8
0
 10
218.497
 20
77.0566
 30
0.0
 40
0.5
 41
0.5
  0
SEQEND
  8
0
  0
POLYLINE
8
0
 62
     0
 66
     1
 10
0
 20
0
 30
0.0
 70
     1
 40
0.5
 41
0.5
  0
VERTEX
  8
0
 10
218.497
 20
77.8643
 30
0.0
 40
0.5
 41
0.5
  0
VERTEX
  8
0
 10
218.497
 20
77.2341
 30
0.0
 40
0.5
 41
0.5
  0
VERTEX
  8
0
 10
218.538
 20
77.2292
 30
0.0
 40
0.5
 41
0.5
  0
VERTEX
  8
0
 10
218.58
 20
77.2292
 30
0.0
 40
0.5
 41
0.5
  0
VERTEX
  8
0
 10
218.857
 20
77.2979
 30
0.0
 40
0.5
 41
0.5
  0
VERTEX
  8
0
 10
218.952
 20
77.5266
 30
0.0
 40
0.5
 41
0.5
  0
VERTEX
  8
0
 10
218.952
 20
77.533
 30
0.0
 40
0.5
 41
0.5
  0
VERTEX
  8
0
 10
218.952
 20
77.5391
 30
0.0
 40
0.5
 41
0.5
  0
VERTEX
  8
0
 10
218.951
 20
77.5955
 30
0.0
 40
0.5
 41
0.5
  0
VERTEX
  8
0
 10
218.942
 20
77.6592
 30
0.0
 40
0.5
 41
0.5
  0
VERTEX
  8
0
 10
218.844
 20
77.7991
 30
0.0
 40
0.5
 41
0.5
  0
VERTEX
  8
0
 10
218.555
 20
77.8616
 30
0.0
 40
0.5
 41
0.5
  0
VERTEX
  8
0
 10
218.527
 20
77.8616
 30
0.0
 40
0.5
 41
0.5
  0
VERTEX
  8
0
 10
218.497
 20
77.8616
 30
0.0
 40
0.5
 41
0.5
  0
VERTEX
  8
0
 10
218.497
 20
77.8643
 30
0.0
 40
0.5
 41
0.5
  0
SEQEND
  8
0
  0
POLYLINE
8
0
 62
     0
 66
     1
 10
0
 20
0
 30
0.0
 70
     1
 40
0.5
 41
0.5
  0
VERTEX
  8
0
 10
199.318
 20
77.0767
 30
0.0
 40
0.5
 41
0.5
  0
VERTEX
  8
0
 10
199.318
 20
76.8792
 30
0.0
 40
0.5
 41
0.5
  0
VERTEX
  8
0
 10
198.765
 20
76.8792
 30
0.0
 40
0.5
 41
0.5
  0
VERTEX
  8
0
 10
198.765
 20
77.0767
 30
0.0
 40
0.5
 41
0.5
  0
VERTEX
  8
0
 10
199.318
 20
77.0767
 30
0.0
 40
0.5
 41
0.5
  0
SEQEND
  8
0
  0
POLYLINE
8
0
 62
     0
 66
     1
 10
0
 20
0
 30
0.0
 70
     1
 40
0.5
 41
0.5
  0
VERTEX
  8
0
 10
199.752
 20
77.8442
 30
0.0
 40
0.5
 41
0.5
  0
VERTEX
  8
0
 10
199.889
 20
78.0815
 30
0.0
 40
0.5
 41
0.5
  0
VERTEX
  8
0
 10
200.304
 20
78.0815
 30
0.0
 40
0.5
 41
0.5
  0
VERTEX
  8
0
 10
200.304
 20
76.1716
 30
0.0
 40
0.5
 41
0.5
  0
VERTEX
  8
0
 10
200.067
 20
76.1716
 30
0.0
 40
0.5
 41
0.5
  0
VERTEX
  8
0
 10
200.067
 20
77.8442
 30
0.0
 40
0.5
 41
0.5
  0
VERTEX
  8
0
 10
199.752
 20
77.8442
 30
0.0
 40
0.5
 41
0.5
  0
SEQEND
  8
0
  0
POLYLINE
8
0
 62
     0
 66
     1
 10
0
 20
0
 30
0.0
 70
     1
 40
0.5
 41
0.5
  0
VERTEX
  8
0
 10
201.858
 20
77.2141
 30
0.0
 40
0.5
 41
0.5
  0
VERTEX
  8
0
 10
201.966
 20
77.3828
 30
0.0
 40
0.5
 41
0.5
  0
VERTEX
  8
0
 10
201.998
 20
77.5342
 30
0.0
 40
0.5
 41
0.5
  0
VERTEX
  8
0
 10
201.897
 20
77.7642
 30
0.0
 40
0.5
 41
0.5
  0
VERTEX
  8
0
 10
201.668
 20
77.8616
 30
0.0
 40
0.5
 41
0.5
  0
VERTEX
  8
0
 10
201.654
 20
77.8616
 30
0.0
 40
0.5
 41
0.5
  0
VERTEX
  8
0
 10
201.64
 20
77.8616
 30
0.0
 40
0.5
 41
0.5
  0
VERTEX
  8
0
 10
201.389
 20
77.7717
 30
0.0
 40
0.5
 41
0.5
  0
VERTEX
  8
0
 10
201.283
 20
77.5742
 30
0.0
 40
0.5
 41
0.5
  0
VERTEX
  8
0
 10
201.283
 20
77.5642
 30
0.0
 40
0.5
 41
0.5
  0
VERTEX
  8
0
 10
201.283
 20
77.5542
 30
0.0
 40
0.5
 41
0.5
  0
VERTEX
  8
0
 10
201.283
 20
77.5479
 30
0.0
 40
0.5
 41
0.5
  0
VERTEX
  8
0
 10
201.285
 20
77.5417
 30
0.0
 40
0.5
 41
0.5
  0
VERTEX
  8
0
 10
201.285
 20
77.5342
 30
0.0
 40
0.5
 41
0.5
  0
VERTEX
  8
0
 10
201.285
 20
77.5266
 30
0.0
 40
0.5
 41
0.5
  0
VERTEX
  8
0
 10
201.031
 20
77.5291
 30
0.0
 40
0.5
 41
0.5
  0
VERTEX
  8
0
 10
201.2
 20
77.9141
 30
0.0
 40
0.5
 41
0.5
  0
VERTEX
  8
0
 10
201.621
 20
78.0791
 30
0.0
 40
0.5
 41
0.5
  0
VERTEX
  8
0
 10
201.635
 20
78.0791
 30
0.0
 40
0.5
 41
0.5
  0
VERTEX
  8
0
 10
201.65
 20
78.0791
 30
0.0
 40
0.5
 41
0.5
  0
VERTEX
  8
0
 10
202.093
 20
77.9229
 30
0.0
 40
0.5
 41
0.5
  0
VERTEX
  8
0
 10
202.26
 20
77.5442
 30
0.0
 40
0.5
 41
0.5
  0
VERTEX
  8
0
 10
202.248
 20
77.4277
 30
0.0
 40
0.5
 41
0.5
  0
VERTEX
  8
0
 10
202.208
 20
77.3115
 30
0.0
 40
0.5
 41
0.5
  0
VERTEX
  8
0
 10
202.159
 20
77.2217
 30
0.0
 40
0.5
 41
0.5
  0
VERTEX
  8
0
 10
202.093
 20
77.134
 30
0.0
 40
0.5
 41
0.5
  0
VERTEX
  8
0
 10
201.463
 20
76.3892
 30
0.0
 40
0.5
 41
0.5
  0
VERTEX
  8
0
 10
202.23
 20
76.3892
 30
0.0
 40
0.5
 41
0.5
  0
VERTEX
  8
0
 10
202.23
 20
76.1716
 30
0.0
 40
0.5
 41
0.5
  0
VERTEX
  8
0
 10
201.01
 20
76.1716
 30
0.0
 40
0.5
 41
0.5
  0
VERTEX
  8
0
 10
201.858
 20
77.2141
 30
0.0
 40
0.5
 41
0.5
  0
SEQEND
  8
0
  0
POLYLINE
8
0
 62
     0
 66
     1
 10
0
 20
0
 30
0.0
 70
     1
 40
0.5
 41
0.5
  0
VERTEX
  8
0
 10
203.569
 20
78.3567
 30
0.0
 40
0.5
 41
0.5
  0
VERTEX
  8
0
 10
203.569
 20
76.1716
 30
0.0
 40
0.5
 41
0.5
  0
VERTEX
  8
0
 10
203.352
 20
76.1716
 30
0.0
 40
0.5
 41
0.5
  0
VERTEX
  8
0
 10
203.352
 20
76.3691
 30
0.0
 40
0.5
 41
0.5
  0
VERTEX
  8
0
 10
203.269
 20
76.2605
 30
0.0
 40
0.5
 41
0.5
  0
VERTEX
  8
0
 10
203.179
 20
76.1892
 30
0.0
 40
0.5
 41
0.5
  0
VERTEX
  8
0
 10
203.059
 20
76.144
 30
0.0
 40
0.5
 41
0.5
  0
VERTEX
  8
0
 10
202.959
 20
76.1316
 30
0.0
 40
0.5
 41
0.5
  0
VERTEX
  8
0
 10
202.944
 20
76.1316
 30
0.0
 40
0.5
 41
0.5
  0
VERTEX
  8
0
 10
202.929
 20
76.1316
 30
0.0
 40
0.5
 41
0.5
  0
VERTEX
  8
0
 10
202.584
 20
76.2502
 30
0.0
 40
0.5
 41
0.5
  0
VERTEX
  8
0
 10
202.406
 20
76.519
 30
0.0
 40
0.5
 41
0.5
  0
VERTEX
  8
0
 10
202.378
 20
76.6328
 30
0.0
 40
0.5
 41
0.5
  0
VERTEX
  8
0
 10
202.369
 20
76.7393
 30
0.0
 40
0.5
 41
0.5
  0
VERTEX
  8
0
 10
202.53
 20
77.2129
 30
0.0
 40
0.5
 41
0.5
  0
VERTEX
  8
0
 10
202.886
 20
77.3867
 30
0.0
 40
0.5
 41
0.5
  0
VERTEX
  8
0
 10
202.913
 20
77.3892
 30
0.0
 40
0.5
 41
0.5
  0
VERTEX
  8
0
 10
202.939
 20
77.3892
 30
0.0
 40
0.5
 41
0.5
  0
VERTEX
  8
0
 10
203.001
 20
77.3855
 30
0.0
 40
0.5
 41
0.5
  0
VERTEX
  8
0
 10
203.066
 20
77.374
 30
0.0
 40
0.5
 41
0.5
  0
VERTEX
  8
0
 10
203.218
 20
77.3066
 30
0.0
 40
0.5
 41
0.5
  0
VERTEX
  8
0
 10
203.334
 20
77.1741
 30
0.0
 40
0.5
 41
0.5
  0
VERTEX
  8
0
 10
203.334
 20
78.3567
 30
0.0
 40
0.5
 41
0.5
  0
VERTEX
  8
0
 10
203.569
 20
78.3567
 30
0.0
 40
0.5
 41
0.5
  0
SEQEND
  8
0
  0
POLYLINE
8
0
 62
     0
 66
     1
 10
0
 20
0
 30
0.0
 70
     1
 40
0.5
 41
0.5
  0
VERTEX
  8
0
 10
203.334
 20
76.7817
 30
0.0
 40
0.5
 41
0.5
  0
VERTEX
  8
0
 10
203.245
 20
77.0815
 30
0.0
 40
0.5
 41
0.5
  0
VERTEX
  8
0
 10
202.979
 20
77.1917
 30
0.0
 40
0.5
 41
0.5
  0
VERTEX
  8
0
 10
202.725
 20
77.0854
 30
0.0
 40
0.5
 41
0.5
  0
VERTEX
  8
0
 10
202.614
 20
76.8516
 30
0.0
 40
0.5
 41
0.5
  0
VERTEX
  8
0
 10
202.606
 20
76.7954
 30
0.0
 40
0.5
 41
0.5
  0
VERTEX
  8
0
 10
202.604
 20
76.7393
 30
0.0
 40
0.5
 41
0.5
  0
VERTEX
  8
0
 10
202.612
 20
76.6604
 30
0.0
 40
0.5
 41
0.5
  0
VERTEX
  8
0
 10
202.636
 20
76.5715
 30
0.0
 40
0.5
 41
0.5
  0
VERTEX
  8
0
 10
202.75
 20
76.4028
 30
0.0
 40
0.5
 41
0.5
  0
VERTEX
  8
0
 10
202.979
 20
76.3267
 30
0.0
 40
0.5
 41
0.5
  0
VERTEX
  8
0
 10
203.225
 20
76.4329
 30
0.0
 40
0.5
 41
0.5
  0
VERTEX
  8
0
 10
203.324
 20
76.6667
 30
0.0
 40
0.5
 41
0.5
  0
VERTEX
  8
0
 10
203.332
 20
76.7229
 30
0.0
 40
0.5
 41
0.5
  0
VERTEX
  8
0
 10
203.334
 20
76.7791
 30
0.0
 40
0.5
 41
0.5
  0
VERTEX
  8
0
 10
203.334
 20
76.7817
 30
0.0
 40
0.5
 41
0.5
  0
SEQEND
  8
0
  0
POLYLINE
8
0
 62
     0
 66
     1
 10
0
 20
0
 30
0.0
 70
     1
 40
0.5
 41
0.5
  0
VERTEX
  8
0
 10
204.101
 20
78.0417
 30
0.0
 40
0.5
 41
0.5
  0
VERTEX
  8
0
 10
204.195
 20
78.0391
 30
0.0
 40
0.5
 41
0.5
  0
VERTEX
  8
0
 10
204.293
 20
78.0342
 30
0.0
 40
0.5
 41
0.5
  0
VERTEX
  8
0
 10
204.638
 20
77.9441
 30
0.0
 40
0.5
 41
0.5
  0
VERTEX
  8
0
 10
204.808
 20
77.6067
 30
0.0
 40
0.5
 41
0.5
  0
VERTEX
  8
0
 10
204.75
 20
77.3403
 30
0.0
 40
0.5
 41
0.5
  0
VERTEX
  8
0
 10
204.573
 20
77.1917
 30
0.0
 40
0.5
 41
0.5
  0
VERTEX
  8
0
 10
204.601
 20
77.1892
 30
0.0
 40
0.5
 41
0.5
  0
VERTEX
  8
0
 10
204.628
 20
77.1816
 30
0.0
 40
0.5
 41
0.5
  0
VERTEX
  8
0
 10
204.875
 20
77.0142
 30
0.0
 40
0.5
 41
0.5
  0
VERTEX
  8
0
 10
204.986
 20
76.6816
 30
0.0
 40
0.5
 41
0.5
  0
VERTEX
  8
0
 10
204.79
 20
76.3018
 30
0.0
 40
0.5
 41
0.5
  0
VERTEX
  8
0
 10
204.296
 20
76.1716
 30
0.0
 40
0.5
 41
0.5
  0
VERTEX
  8
0
 10
203.863
 20
76.1716
 30
0.0
 40
0.5
 41
0.5
  0
VERTEX
  8
0
 10
203.863
 20
78.0417
 30
0.0
 40
0.5
 41
0.5
  0
VERTEX
  8
0
 10
204.101
 20
78.0417
 30
0.0
 40
0.5
 41
0.5
  0
SEQEND
  8
0
  0
POLYLINE
8
0
 62
     0
 66
     1
 10
0
 20
0
 30
0.0
 70
     1
 40
0.5
 41
0.5
  0
VERTEX
  8
0
 10
204.118
 20
77.0566
 30
0.0
 40
0.5
 41
0.5
  0
VERTEX
  8
0
 10
204.118
 20
76.3691
 30
0.0
 40
0.5
 41
0.5
  0
VERTEX
  8
0
 10
204.191
 20
76.3604
 30
0.0
 40
0.5
 41
0.5
  0
VERTEX
  8
0
 10
204.258
 20
76.3567
 30
0.0
 40
0.5
 41
0.5
  0
VERTEX
  8
0
 10
204.536
 20
76.4104
 30
0.0
 40
0.5
 41
0.5
  0
VERTEX
  8
0
 10
204.683
 20
76.5291
 30
0.0
 40
0.5
 41
0.5
  0
VERTEX
  8
0
 10
204.719
 20
76.6016
 30
0.0
 40
0.5
 41
0.5
  0
VERTEX
  8
0
 10
204.731
 20
76.6616
 30
0.0
 40
0.5
 41
0.5
  0
VERTEX
  8
0
 10
204.731
 20
76.6768
 30
0.0
 40
0.5
 41
0.5
  0
VERTEX
  8
0
 10
204.731
 20
76.6941
 30
0.0
 40
0.5
 41
0.5
  0
VERTEX
  8
0
 10
204.582
 20
76.9692
 30
0.0
 40
0.5
 41
0.5
  0
VERTEX
  8
0
 10
204.118
 20
77.0542
 30
0.0
 40
0.5
 41
0.5
  0
VERTEX
  8
0
 10
204.118
 20
77.0566
 30
0.0
 40
0.5
 41
0.5
  0
SEQEND
  8
0
  0
POLYLINE
8
0
 62
     0
 66
     1
 10
0
 20
0
 30
0.0
 70
     1
 40
0.5
 41
0.5
  0
VERTEX
  8
0
 10
204.118
 20
77.8643
 30
0.0
 40
0.5
 41
0.5
  0
VERTEX
  8
0
 10
204.118
 20
77.2341
 30
0.0
 40
0.5
 41
0.5
  0
VERTEX
  8
0
 10
204.16
 20
77.2292
 30
0.0
 40
0.5
 41
0.5
  0
VERTEX
  8
0
 10
204.201
 20
77.2292
 30
0.0
 40
0.5
 41
0.5
  0
VERTEX
  8
0
 10
204.479
 20
77.2979
 30
0.0
 40
0.5
 41
0.5
  0
VERTEX
  8
0
 10
204.573
 20
77.5266
 30
0.0
 40
0.5
 41
0.5
  0
VERTEX
  8
0
 10
204.573
 20
77.533
 30
0.0
 40
0.5
 41
0.5
  0
VERTEX
  8
0
 10
204.573
 20
77.5391
 30
0.0
 40
0.5
 41
0.5
  0
VERTEX
  8
0
 10
204.572
 20
77.5955
 30
0.0
 40
0.5
 41
0.5
  0
VERTEX
  8
0
 10
204.563
 20
77.6592
 30
0.0
 40
0.5
 41
0.5
  0
VERTEX
  8
0
 10
204.465
 20
77.7991
 30
0.0
 40
0.5
 41
0.5
  0
VERTEX
  8
0
 10
204.176
 20
77.8616
 30
0.0
 40
0.5
 41
0.5
  0
VERTEX
  8
0
 10
204.148
 20
77.8616
 30
0.0
 40
0.5
 41
0.5
  0
VERTEX
  8
0
 10
204.118
 20
77.8616
 30
0.0
 40
0.5
 41
0.5
  0
VERTEX
  8
0
 10
204.118
 20
77.8643
 30
0.0
 40
0.5
 41
0.5
  0
SEQEND
  8
0
  0
POLYLINE
8
0
 62
     0
 66
     1
 10
0
 20
0
 30
0.0
 40
0.5
 41
0.5
  0
VERTEX
  8
0
 10
354.715
 20
111.925
 30
0.0
 40
0.5
 41
0.5
  0
VERTEX
  8
0
 10
359.095
 20
111.925
 30
0.0
 40
0.5
 41
0.5
  0
SEQEND
  8
0
  0
POLYLINE
8
0
 62
     0
 66
     1
 10
0
 20
0
 30
0.0
 40
0.5
 41
0.5
  0
VERTEX
  8
0
 10
356.905
 20
109.735
 30
0.0
 40
0.5
 41
0.5
  0
VERTEX
  8
0
 10
356.905
 20
114.115
 30
0.0
 40
0.5
 41
0.5
  0
SEQEND
  8
0
  0
POLYLINE
8
0
 62
     0
 66
     1
 10
0
 20
0
 30
0.0
 70
     1
 40
0.5
 41
0.5
  0
VERTEX
  8
0
 10
311.552
 20
82.8701
 30
0.0
 40
0.5
 41
0.5
  0
VERTEX
  8
0
 10
312.387
 20
87.0078
 30
0.0
 40
0.5
 41
0.5
  0
VERTEX
  8
0
 10
314.666
 20
90.3867
 30
0.0
 40
0.5
 41
0.5
  0
VERTEX
  8
0
 10
318.044
 20
92.6648
 30
0.0
 40
0.5
 41
0.5
  0
VERTEX
  8
0
 10
322.182
 20
93.5
 30
0.0
 40
0.5
 41
0.5
  0
VERTEX
  8
0
 10
326.32
 20
92.6648
 30
0.0
 40
0.5
 41
0.5
  0
VERTEX
  8
0
 10
329.698
 20
90.3867
 30
0.0
 40
0.5
 41
0.5
  0
VERTEX
  8
0
 10
331.977
 20
87.0078
 30
0.0
 40
0.5
 41
0.5
  0
VERTEX
  8
0
 10
332.812
 20
82.8701
 30
0.0
 40
0.5
 41
0.5
  0
VERTEX
  8
0
 10
331.977
 20
78.7327
 30
0.0
 40
0.5
 41
0.5
  0
VERTEX
  8
0
 10
329.698
 20
75.3538
 30
0.0
 40
0.5
 41
0.5
  0
VERTEX
  8
0
 10
326.32
 20
73.0757
 30
0.0
 40
0.5
 41
0.5
  0
VERTEX
  8
0
 10
322.182
 20
72.2402
 30
0.0
 40
0.5
 41
0.5
  0
VERTEX
  8
0
 10
318.044
 20
73.0757
 30
0.0
 40
0.5
 41
0.5
  0
VERTEX
  8
0
 10
314.666
 20
75.3538
 30
0.0
 40
0.5
 41
0.5
  0
VERTEX
  8
0
 10
312.387
 20
78.7327
 30
0.0
 40
0.5
 41
0.5
  0
VERTEX
  8
0
 10
311.552
 20
82.8701
 30
0.0
 40
0.5
 41
0.5
  0
SEQEND
  8
0
  0
POLYLINE
8
0
 62
     0
 66
     1
 10
0
 20
0
 30
0.0
 40
0.5
 41
0.5
  0
VERTEX
  8
0
 10
354.715
 20
75.075
 30
0.0
 40
0.5
 41
0.5
  0
VERTEX
  8
0
 10
359.095
 20
75.075
 30
0.0
 40
0.5
 41
0.5
  0
SEQEND
  8
0
  0
POLYLINE
8
0
 62
     0
 66
     1
 10
0
 20
0
 30
0.0
 40
0.5
 41
0.5
  0
VERTEX
  8
0
 10
356.905
 20
72.885
 30
0.0
 40
0.5
 41
0.5
  0
VERTEX
  8
0
 10
356.905
 20
77.2646
 30
0.0
 40
0.5
 41
0.5
  0
SEQEND
  8
0
  0
POLYLINE
8
0
 62
     0
 66
     1
 10
0
 20
0
 30
0.0
 40
0.5
 41
0.5
  0
VERTEX
  8
0
 10
71.2505
 20
75.075
 30
0.0
 40
0.5
 41
0.5
  0
VERTEX
  8
0
 10
75.6304
 20
75.075
 30
0.0
 40
0.5
 41
0.5
  0
SEQEND
  8
0
  0
POLYLINE
8
0
 62
     0
 66
     1
 10
0
 20
0
 30
0.0
 40
0.5
 41
0.5
  0
VERTEX
  8
0
 10
73.4404
 20
72.885
 30
0.0
 40
0.5
 41
0.5
  0
VERTEX
  8
0
 10
73.4404
 20
77.2646
 30
0.0
 40
0.5
 41
0.5
  0
SEQEND
  8
0
  0
POLYLINE
8
0
 62
     0
 66
     1
 10
0
 20
0
 30
0.0
 40
0.5
 41
0.5
  0
VERTEX
  8
0
 10
71.2505
 20
111.925
 30
0.0
 40
0.5
 41
0.5
  0
VERTEX
  8
0
 10
75.6304
 20
111.925
 30
0.0
 40
0.5
 41
0.5
  0
SEQEND
  8
0
  0
POLYLINE
8
0
 62
     0
 66
     1
 10
0
 20
0
 30
0.0
 40
0.5
 41
0.5
  0
VERTEX
  8
0
 10
73.4404
 20
109.735
 30
0.0
 40
0.5
 41
0.5
  0
VERTEX
  8
0
 10
73.4404
 20
114.115
 30
0.0
 40
0.5
 41
0.5
  0
SEQEND
  8
0
  0
POLYLINE
8
0
 62
     0
 66
     1
 10
0
 20
0
 30
0.0
 40
0.5
 41
0.5
  0
VERTEX
  8
0
 10
0.865234
 20
62.3625
 30
0.0
 40
0.5
 41
0.5
  0
VERTEX
  8
0
 10
27.2559
 20
62.3625
 30
0.0
 40
0.5
 41
0.5
  0
SEQEND
  8
0
  0
POLYLINE
8
0
 62
     0
 66
     1
 10
0
 20
0
 30
0.0
 40
0.5
 41
0.5
  0
VERTEX
  8
0
 10
0.865234
 20
124.725
 30
0.0
 40
0.5
 41
0.5
  0
VERTEX
  8
0
 10
27.2559
 20
124.725
 30
0.0
 40
0.5
 41
0.5
  0
SEQEND
  8
0
  0
POLYLINE
8
0
 62
     0
 66
     1
 10
0
 20
0
 30
0.0
 40
0.5
 41
0.5
  0
VERTEX
  8
0
 10
9.15796
 20
64.5068
 30
0.0
 40
0.5
 41
0.5
  0
VERTEX
  8
0
 10
9.15796
 20
122.622
 30
0.0
 40
0.5
 41
0.5
  0
SEQEND
  8
0
  0
POLYLINE
8
0
 62
     0
 66
     1
 10
0
 20
0
 30
0.0
 70
     1
 40
0.5
 41
0.5
  0
VERTEX
  8
0
 10
3.19995
 20
97.8069
 30
0.0
 40
0.5
 41
0.5
  0
VERTEX
  8
0
 10
3.19995
 20
96.8225
 30
0.0
 40
0.5
 41
0.5
  0
VERTEX
  8
0
 10
2.63745
 20
96.8225
 30
0.0
 40
0.5
 41
0.5
  0
VERTEX
  8
0
 10
2.63745
 20
97.8069
 30
0.0
 40
0.5
 41
0.5
  0
VERTEX
  8
0
 10
0.809326
 20
97.8069
 30
0.0
 40
0.5
 41
0.5
  0
VERTEX
  8
0
 10
0.809326
 20
98.3694
 30
0.0
 40
0.5
 41
0.5
  0
VERTEX
  8
0
 10
2.63745
 20
98.3694
 30
0.0
 40
0.5
 41
0.5
  0
VERTEX
  8
0
 10
2.63745
 20
100.971
 30
0.0
 40
0.5
 41
0.5
  0
VERTEX
  8
0
 10
3.19995
 20
100.971
 30
0.0
 40
0.5
 41
0.5
  0
VERTEX
  8
0
 10
7.66479
 20
98.3694
 30
0.0
 40
0.5
 41
0.5
  0
VERTEX
  8
0
 10
7.66479
 20
97.8069
 30
0.0
 40
0.5
 41
0.5
  0
VERTEX
  8
0
 10
3.19995
 20
97.8069
 30
0.0
 40
0.5
 41
0.5
  0
SEQEND
  8
0
  0
POLYLINE
8
0
 62
     0
 66
     1
 10
0
 20
0
 30
0.0
 70
     1
 40
0.5
 41
0.5
  0
VERTEX
  8
0
 10
3.19995
 20
98.3694
 30
0.0
 40
0.5
 41
0.5
  0
VERTEX
  8
0
 10
6.53979
 20
98.3694
 30
0.0
 40
0.5
 41
0.5
  0
VERTEX
  8
0
 10
3.19995
 20
100.338
 30
0.0
 40
0.5
 41
0.5
  0
VERTEX
  8
0
 10
3.19995
 20
98.3694
 30
0.0
 40
0.5
 41
0.5
  0
SEQEND
  8
0
  0
POLYLINE
8
0
 62
     0
 66
     1
 10
0
 20
0
 30
0.0
 70
     1
 40
0.5
 41
0.5
  0
VERTEX
  8
0
 10
3.19995
 20
92.5691
 30
0.0
 40
0.5
 41
0.5
  0
VERTEX
  8
0
 10
3.19995
 20
91.5847
 30
0.0
 40
0.5
 41
0.5
  0
VERTEX
  8
0
 10
2.63745
 20
91.5847
 30
0.0
 40
0.5
 41
0.5
  0
VERTEX
  8
0
 10
2.63745
 20
92.5691
 30
0.0
 40
0.5
 41
0.5
  0
VERTEX
  8
0
 10
0.809326
 20
92.5691
 30
0.0
 40
0.5
 41
0.5
  0
VERTEX
  8
0
 10
0.809326
 20
93.1316
 30
0.0
 40
0.5
 41
0.5
  0
VERTEX
  8
0
 10
2.63745
 20
93.1316
 30
0.0
 40
0.5
 41
0.5
  0
VERTEX
  8
0
 10
2.63745
 20
95.7332
 30
0.0
 40
0.5
 41
0.5
  0
VERTEX
  8
0
 10
3.19995
 20
95.7332
 30
0.0
 40
0.5
 41
0.5
  0
VERTEX
  8
0
 10
7.66479
 20
93.1316
 30
0.0
 40
0.5
 41
0.5
  0
VERTEX
  8
0
 10
7.66479
 20
92.5691
 30
0.0
 40
0.5
 41
0.5
  0
VERTEX
  8
0
 10
3.19995
 20
92.5691
 30
0.0
 40
0.5
 41
0.5
  0
SEQEND
  8
0
  0
POLYLINE
8
0
 62
     0
 66
     1
 10
0
 20
0
 30
0.0
 70
     1
 40
0.5
 41
0.5
  0
VERTEX
  8
0
 10
3.19995
 20
93.1316
 30
0.0
 40
0.5
 41
0.5
  0
VERTEX
  8
0
 10
6.53979
 20
93.1316
 30
0.0
 40
0.5
 41
0.5
  0
VERTEX
  8
0
 10
3.19995
 20
95.1003
 30
0.0
 40
0.5
 41
0.5
  0
VERTEX
  8
0
 10
3.19995
 20
93.1316
 30
0.0
 40
0.5
 41
0.5
  0
SEQEND
  8
0
  0
POLYLINE
8
0
 62
     0
 66
     1
 10
0
 20
0
 30
0.0
 70
     1
 40
0.5
 41
0.5
  0
VERTEX
  8
0
 10
1.54761
 20
89.7922
 30
0.0
 40
0.5
 41
0.5
  0
VERTEX
  8
0
 10
0.809326
 20
89.7922
 30
0.0
 40
0.5
 41
0.5
  0
VERTEX
  8
0
 10
0.809326
 20
90.4951
 30
0.0
 40
0.5
 41
0.5
  0
VERTEX
  8
0
 10
1.54761
 20
90.4951
 30
0.0
 40
0.5
 41
0.5
  0
VERTEX
  8
0
 10
1.54761
 20
89.7922
 30
0.0
 40
0.5
 41
0.5
  0
SEQEND
  8
0
  0
POLYLINE
8
0
 62
     0
 66
     1
 10
0
 20
0
 30
0.0
 70
     1
 40
0.5
 41
0.5
  0
VERTEX
  8
0
 10
7.10229
 20
86.6211
 30
0.0
 40
0.5
 41
0.5
  0
VERTEX
  8
0
 10
6.71558
 20
87.5
 30
0.0
 40
0.5
 41
0.5
  0
VERTEX
  8
0
 10
4.21948
 20
88.0625
 30
0.0
 40
0.5
 41
0.5
  0
VERTEX
  8
0
 10
1.75854
 20
87.5
 30
0.0
 40
0.5
 41
0.5
  0
VERTEX
  8
0
 10
1.37183
 20
86.6211
 30
0.0
 40
0.5
 41
0.5
  0
VERTEX
  8
0
 10
1.75854
 20
85.7422
 30
0.0
 40
0.5
 41
0.5
  0
VERTEX
  8
0
 10
4.21948
 20
85.1797
 30
0.0
 40
0.5
 41
0.5
  0
VERTEX
  8
0
 10
6.71558
 20
85.7422
 30
0.0
 40
0.5
 41
0.5
  0
VERTEX
  8
0
 10
7.10229
 20
86.6211
 30
0.0
 40
0.5
 41
0.5
  0
SEQEND
  8
0
  0
POLYLINE
8
0
 62
     0
 66
     1
 10
0
 20
0
 30
0.0
 70
     1
 40
0.5
 41
0.5
  0
VERTEX
  8
0
 10
7.66479
 20
86.6211
 30
0.0
 40
0.5
 41
0.5
  0
VERTEX
  8
0
 10
7.13745
 20
85.3906
 30
0.0
 40
0.5
 41
0.5
  0
VERTEX
  8
0
 10
6.02124
 20
84.8105
 30
0.0
 40
0.5
 41
0.5
  0
VERTEX
  8
0
 10
4.21948
 20
84.6172
 30
0.0
 40
0.5
 41
0.5
  0
VERTEX
  8
0
 10
2.44409
 20
84.8105
 30
0.0
 40
0.5
 41
0.5
  0
VERTEX
  8
0
 10
1.33667
 20
85.3906
 30
0.0
 40
0.5
 41
0.5
  0
VERTEX
  8
0
 10
0.809326
 20
86.6211
 30
0.0
 40
0.5
 41
0.5
  0
VERTEX
  8
0
 10
1.33667
 20
87.8516
 30
0.0
 40
0.5
 41
0.5
  0
VERTEX
  8
0
 10
2.44409
 20
88.4316
 30
0.0
 40
0.5
 41
0.5
  0
VERTEX
  8
0
 10
4.21948
 20
88.625
 30
0.0
 40
0.5
 41
0.5
  0
VERTEX
  8
0
 10
6.02124
 20
88.4316
 30
0.0
 40
0.5
 41
0.5
  0
VERTEX
  8
0
 10
7.13745
 20
87.8516
 30
0.0
 40
0.5
 41
0.5
  0
VERTEX
  8
0
 10
7.66479
 20
86.6211
 30
0.0
 40
0.5
 41
0.5
  0
SEQEND
  8
0
  0
POLYLINE
8
0
 62
     0
 66
     1
 10
0
 20
0
 30
0.0
 40
0.5
 41
0.5
  0
VERTEX
  8
0
 10
27.3611
 20
4.31421
 30
0.0
 40
0.5
 41
0.5
  0
VERTEX
  8
0
 10
27.3611
 20
62.6304
 30
0.0
 40
0.5
 41
0.5
  0
SEQEND
  8
0
  0
POLYLINE
8
0
 62
     0
 66
     1
 10
0
 20
0
 30
0.0
 40
0.5
 41
0.5
  0
VERTEX
  8
0
 10
707.648
 20
3.56421
 30
0.0
 40
0.5
 41
0.5
  0
VERTEX
  8
0
 10
707.648
 20
62.6304
 30
0.0
 40
0.5
 41
0.5
  0
SEQEND
  8
0
  0
POLYLINE
8
0
 62
     0
 66
     1
 10
0
 20
0
 30
0.0
 40
0.5
 41
0.5
  0
VERTEX
  8
0
 10
705.583
 20
9.57837
 30
0.0
 40
0.5
 41
0.5
  0
VERTEX
  8
0
 10
29.3669
 20
9.57837
 30
0.0
 40
0.5
 41
0.5
  0
SEQEND
  8
0
  0
POLYLINE
8
0
 62
     0
 66
     1
 10
0
 20
0
 30
0.0
 70
     1
 40
0.5
 41
0.5
  0
VERTEX
  8
0
 10
335.961
 20
3.4917
 30
0.0
 40
0.5
 41
0.5
  0
VERTEX
  8
0
 10
336.945
 20
3.4917
 30
0.0
 40
0.5
 41
0.5
  0
VERTEX
  8
0
 10
336.945
 20
2.9292
 30
0.0
 40
0.5
 41
0.5
  0
VERTEX
  8
0
 10
335.961
 20
2.9292
 30
0.0
 40
0.5
 41
0.5
  0
VERTEX
  8
0
 10
335.961
 20
1.10107
 30
0.0
 40
0.5
 41
0.5
  0
VERTEX
  8
0
 10
335.398
 20
1.10107
 30
0.0
 40
0.5
 41
0.5
  0
VERTEX
  8
0
 10
335.398
 20
2.9292
 30
0.0
 40
0.5
 41
0.5
  0
VERTEX
  8
0
 10
332.797
 20
2.9292
 30
0.0
 40
0.5
 41
0.5
  0
VERTEX
  8
0
 10
332.797
 20
3.4917
 30
0.0
 40
0.5
 41
0.5
  0
VERTEX
  8
0
 10
335.398
 20
7.95654
 30
0.0
 40
0.5
 41
0.5
  0
VERTEX
  8
0
 10
335.961
 20
7.95654
 30
0.0
 40
0.5
 41
0.5
  0
VERTEX
  8
0
 10
335.961
 20
3.4917
 30
0.0
 40
0.5
 41
0.5
  0
SEQEND
  8
0
  0
POLYLINE
8
0
 62
     0
 66
     1
 10
0
 20
0
 30
0.0
 70
     1
 40
0.5
 41
0.5
  0
VERTEX
  8
0
 10
335.398
 20
3.4917
 30
0.0
 40
0.5
 41
0.5
  0
VERTEX
  8
0
 10
335.398
 20
6.83154
 30
0.0
 40
0.5
 41
0.5
  0
VERTEX
  8
0
 10
333.429
 20
3.4917
 30
0.0
 40
0.5
 41
0.5
  0
VERTEX
  8
0
 10
335.398
 20
3.4917
 30
0.0
 40
0.5
 41
0.5
  0
SEQEND
  8
0
  0
POLYLINE
8
0
 62
     0
 66
     1
 10
0
 20
0
 30
0.0
 70
     1
 40
0.5
 41
0.5
  0
VERTEX
  8
0
 10
340.109
 20
4.37061
 30
0.0
 40
0.5
 41
0.5
  0
VERTEX
  8
0
 10
339.159
 20
3.98389
 30
0.0
 40
0.5
 41
0.5
  0
VERTEX
  8
0
 10
338.738
 20
2.96436
 30
0.0
 40
0.5
 41
0.5
  0
VERTEX
  8
0
 10
339.054
 20
2.05029
 30
0.0
 40
0.5
 41
0.5
  0
VERTEX
  8
0
 10
340.109
 20
1.66357
 30
0.0
 40
0.5
 41
0.5
  0
VERTEX
  8
0
 10
341.163
 20
2.05029
 30
0.0
 40
0.5
 41
0.5
  0
VERTEX
  8
0
 10
341.48
 20
2.96436
 30
0.0
 40
0.5
 41
0.5
  0
VERTEX
  8
0
 10
341.058
 20
3.98389
 30
0.0
 40
0.5
 41
0.5
  0
VERTEX
  8
0
 10
340.109
 20
4.37061
 30
0.0
 40
0.5
 41
0.5
  0
SEQEND
  8
0
  0
POLYLINE
8
0
 62
     0
 66
     1
 10
0
 20
0
 30
0.0
 70
     1
 40
0.5
 41
0.5
  0
VERTEX
  8
0
 10
340.109
 20
7.95654
 30
0.0
 40
0.5
 41
0.5
  0
VERTEX
  8
0
 10
341.374
 20
7.46436
 30
0.0
 40
0.5
 41
0.5
  0
VERTEX
  8
0
 10
341.831
 20
6.19873
 30
0.0
 40
0.5
 41
0.5
  0
VERTEX
  8
0
 10
341.409
 20
5.03857
 30
0.0
 40
0.5
 41
0.5
  0
VERTEX
  8
0
 10
340.882
 20
4.65186
 30
0.0
 40
0.5
 41
0.5
  0
VERTEX
  8
0
 10
341.515
 20
4.22998
 30
0.0
 40
0.5
 41
0.5
  0
VERTEX
  8
0
 10
341.972
 20
2.96436
 30
0.0
 40
0.5
 41
0.5
  0
VERTEX
  8
0
 10
341.48
 20
1.62842
 30
0.0
 40
0.5
 41
0.5
  0
VERTEX
  8
0
 10
340.109
 20
1.10107
 30
0.0
 40
0.5
 41
0.5
  0
VERTEX
  8
0
 10
338.738
 20
1.62842
 30
0.0
 40
0.5
 41
0.5
  0
VERTEX
  8
0
 10
338.245
 20
2.9292
 30
0.0
 40
0.5
 41
0.5
  0
VERTEX
  8
0
 10
338.702
 20
4.22998
 30
0.0
 40
0.5
 41
0.5
  0
VERTEX
  8
0
 10
339.3
 20
4.65186
 30
0.0
 40
0.5
 41
0.5
  0
VERTEX
  8
0
 10
338.843
 20
5.00342
 30
0.0
 40
0.5
 41
0.5
  0
VERTEX
  8
0
 10
338.386
 20
6.23389
 30
0.0
 40
0.5
 41
0.5
  0
VERTEX
  8
0
 10
338.843
 20
7.46436
 30
0.0
 40
0.5
 41
0.5
  0
VERTEX
  8
0
 10
340.109
 20
7.95654
 30
0.0
 40
0.5
 41
0.5
  0
SEQEND
  8
0
  0
POLYLINE
8
0
 62
     0
 66
     1
 10
0
 20
0
 30
0.0
 70
     1
 40
0.5
 41
0.5
  0
VERTEX
  8
0
 10
340.109
 20
7.39404
 30
0.0
 40
0.5
 41
0.5
  0
VERTEX
  8
0
 10
339.23
 20
7.07764
 30
0.0
 40
0.5
 41
0.5
  0
VERTEX
  8
0
 10
338.878
 20
6.23389
 30
0.0
 40
0.5
 41
0.5
  0
VERTEX
  8
0
 10
339.23
 20
5.35498
 30
0.0
 40
0.5
 41
0.5
  0
VERTEX
  8
0
 10
340.109
 20
4.93311
 30
0.0
 40
0.5
 41
0.5
  0
VERTEX
  8
0
 10
341.023
 20
5.31982
 30
0.0
 40
0.5
 41
0.5
  0
VERTEX
  8
0
 10
341.304
 20
6.19873
 30
0.0
 40
0.5
 41
0.5
  0
VERTEX
  8
0
 10
340.988
 20
7.07764
 30
0.0
 40
0.5
 41
0.5
  0
VERTEX
  8
0
 10
340.109
 20
7.39404
 30
0.0
 40
0.5
 41
0.5
  0
SEQEND
  8
0
  0
POLYLINE
8
0
 62
     0
 66
     1
 10
0
 20
0
 30
0.0
 70
     1
 40
0.5
 41
0.5
  0
VERTEX
  8
0
 10
345.347
 20
7.39404
 30
0.0
 40
0.5
 41
0.5
  0
VERTEX
  8
0
 10
344.468
 20
7.00732
 30
0.0
 40
0.5
 41
0.5
  0
VERTEX
  8
0
 10
343.905
 20
4.51123
 30
0.0
 40
0.5
 41
0.5
  0
VERTEX
  8
0
 10
344.468
 20
2.05029
 30
0.0
 40
0.5
 41
0.5
  0
VERTEX
  8
0
 10
345.347
 20
1.66357
 30
0.0
 40
0.5
 41
0.5
  0
VERTEX
  8
0
 10
346.226
 20
2.05029
 30
0.0
 40
0.5
 41
0.5
  0
VERTEX
  8
0
 10
346.788
 20
4.51123
 30
0.0
 40
0.5
 41
0.5
  0
VERTEX
  8
0
 10
346.226
 20
7.00732
 30
0.0
 40
0.5
 41
0.5
  0
VERTEX
  8
0
 10
345.347
 20
7.39404
 30
0.0
 40
0.5
 41
0.5
  0
SEQEND
  8
0
  0
POLYLINE
8
0
 62
     0
 66
     1
 10
0
 20
0
 30
0.0
 70
     1
 40
0.5
 41
0.5
  0
VERTEX
  8
0
 10
345.347
 20
7.95654
 30
0.0
 40
0.5
 41
0.5
  0
VERTEX
  8
0
 10
346.577
 20
7.4292
 30
0.0
 40
0.5
 41
0.5
  0
VERTEX
  8
0
 10
347.157
 20
6.31299
 30
0.0
 40
0.5
 41
0.5
  0
VERTEX
  8
0
 10
347.351
 20
4.51123
 30
0.0
 40
0.5
 41
0.5
  0
VERTEX
  8
0
 10
347.157
 20
2.73584
 30
0.0
 40
0.5
 41
0.5
  0
VERTEX
  8
0
 10
346.577
 20
1.62842
 30
0.0
 40
0.5
 41
0.5
  0
VERTEX
  8
0
 10
345.347
 20
1.10107
 30
0.0
 40
0.5
 41
0.5
  0
VERTEX
  8
0
 10
344.116
 20
1.62842
 30
0.0
 40
0.5
 41
0.5
  0
VERTEX
  8
0
 10
343.536
 20
2.73584
 30
0.0
 40
0.5
 41
0.5
  0
VERTEX
  8
0
 10
343.343
 20
4.51123
 30
0.0
 40
0.5
 41
0.5
  0
VERTEX
  8
0
 10
343.536
 20
6.31299
 30
0.0
 40
0.5
 41
0.5
  0
VERTEX
  8
0
 10
344.116
 20
7.4292
 30
0.0
 40
0.5
 41
0.5
  0
VERTEX
  8
0
 10
345.347
 20
7.95654
 30
0.0
 40
0.5
 41
0.5
  0
SEQEND
  8
0
  0
POLYLINE
8
0
 62
     0
 66
     1
 10
0
 20
0
 30
0.0
 70
     1
 40
0.5
 41
0.5
  0
VERTEX
  8
0
 10
349.213
 20
1.83936
 30
0.0
 40
0.5
 41
0.5
  0
VERTEX
  8
0
 10
349.213
 20
1.10107
 30
0.0
 40
0.5
 41
0.5
  0
VERTEX
  8
0
 10
348.51
 20
1.10107
 30
0.0
 40
0.5
 41
0.5
  0
VERTEX
  8
0
 10
348.51
 20
1.83936
 30
0.0
 40
0.5
 41
0.5
  0
VERTEX
  8
0
 10
349.213
 20
1.83936
 30
0.0
 40
0.5
 41
0.5
  0
SEQEND
  8
0
  0
POLYLINE
8
0
 62
     0
 66
     1
 10
0
 20
0
 30
0.0
 70
     1
 40
0.5
 41
0.5
  0
VERTEX
  8
0
 10
352.385
 20
7.39404
 30
0.0
 40
0.5
 41
0.5
  0
VERTEX
  8
0
 10
351.506
 20
7.00732
 30
0.0
 40
0.5
 41
0.5
  0
VERTEX
  8
0
 10
350.943
 20
4.51123
 30
0.0
 40
0.5
 41
0.5
  0
VERTEX
  8
0
 10
351.506
 20
2.05029
 30
0.0
 40
0.5
 41
0.5
  0
VERTEX
  8
0
 10
352.385
 20
1.66357
 30
0.0
 40
0.5
 41
0.5
  0
VERTEX
  8
0
 10
353.263
 20
2.05029
 30
0.0
 40
0.5
 41
0.5
  0
VERTEX
  8
0
 10
353.826
 20
4.51123
 30
0.0
 40
0.5
 41
0.5
  0
VERTEX
  8
0
 10
353.263
 20
7.00732
 30
0.0
 40
0.5
 41
0.5
  0
VERTEX
  8
0
 10
352.385
 20
7.39404
 30
0.0
 40
0.5
 41
0.5
  0
SEQEND
  8
0
  0
POLYLINE
8
0
 62
     0
 66
     1
 10
0
 20
0
 30
0.0
 70
     1
 40
0.5
 41
0.5
  0
VERTEX
  8
0
 10
352.385
 20
7.95654
 30
0.0
 40
0.5
 41
0.5
  0
VERTEX
  8
0
 10
353.615
 20
7.4292
 30
0.0
 40
0.5
 41
0.5
  0
VERTEX
  8
0
 10
354.195
 20
6.31299
 30
0.0
 40
0.5
 41
0.5
  0
VERTEX
  8
0
 10
354.388
 20
4.51123
 30
0.0
 40
0.5
 41
0.5
  0
VERTEX
  8
0
 10
354.195
 20
2.73584
 30
0.0
 40
0.5
 41
0.5
  0
VERTEX
  8
0
 10
353.615
 20
1.62842
 30
0.0
 40
0.5
 41
0.5
  0
VERTEX
  8
0
 10
352.385
 20
1.10107
 30
0.0
 40
0.5
 41
0.5
  0
VERTEX
  8
0
 10
351.154
 20
1.62842
 30
0.0
 40
0.5
 41
0.5
  0
VERTEX
  8
0
 10
350.574
 20
2.73584
 30
0.0
 40
0.5
 41
0.5
  0
VERTEX
  8
0
 10
350.381
 20
4.51123
 30
0.0
 40
0.5
 41
0.5
  0
VERTEX
  8
0
 10
350.574
 20
6.31299
 30
0.0
 40
0.5
 41
0.5
  0
VERTEX
  8
0
 10
351.154
 20
7.4292
 30
0.0
 40
0.5
 41
0.5
  0
VERTEX
  8
0
 10
352.385
 20
7.95654
 30
0.0
 40
0.5
 41
0.5
  0
SEQEND
  8
0
  0
POLYLINE
8
0
 62
     0
 66
     1
 10
0
 20
0
 30
0.0
 40
0.5
 41
0.5
  0
VERTEX
  8
0
 10
367.491
 20
28.7778
 30
0.0
 40
0.5
 41
0.5
  0
VERTEX
  8
0
 10
367.491
 20
62.6304
 30
0.0
 40
0.5
 41
0.5
  0
SEQEND
  8
0
  0
POLYLINE
8
0
 62
     0
 66
     1
 10
0
 20
0
 30
0.0
 40
0.5
 41
0.5
  0
VERTEX
  8
0
 10
365.458
 20
35.3657
 30
0.0
 40
0.5
 41
0.5
  0
VERTEX
  8
0
 10
64.7654
 20
35.3657
 30
0.0
 40
0.5
 41
0.5
  0
SEQEND
  8
0
  0
POLYLINE
8
0
 62
     0
 66
     1
 10
0
 20
0
 30
0.0
 70
     1
 40
0.5
 41
0.5
  0
VERTEX
  8
0
 10
207.547
 20
33.7791
 30
0.0
 40
0.5
 41
0.5
  0
VERTEX
  8
0
 10
208.742
 20
33.2869
 30
0.0
 40
0.5
 41
0.5
  0
VERTEX
  8
0
 10
209.199
 20
31.9158
 30
0.0
 40
0.5
 41
0.5
  0
VERTEX
  8
0
 10
208.883
 20
30.6853
 30
0.0
 40
0.5
 41
0.5
  0
VERTEX
  8
0
 10
207.687
 20
29.2439
 30
0.0
 40
0.5
 41
0.5
  0
VERTEX
  8
0
 10
206.176
 20
27.4509
 30
0.0
 40
0.5
 41
0.5
  0
VERTEX
  8
0
 10
209.199
 20
27.4509
 30
0.0
 40
0.5
 41
0.5
  0
VERTEX
  8
0
 10
209.199
 20
26.8884
 30
0.0
 40
0.5
 41
0.5
  0
VERTEX
  8
0
 10
205.543
 20
26.8884
 30
0.0
 40
0.5
 41
0.5
  0
VERTEX
  8
0
 10
205.543
 20
27.5212
 30
0.0
 40
0.5
 41
0.5
  0
VERTEX
  8
0
 10
207.265
 20
29.5603
 30
0.0
 40
0.5
 41
0.5
  0
VERTEX
  8
0
 10
208.39
 20
30.9314
 30
0.0
 40
0.5
 41
0.5
  0
VERTEX
  8
0
 10
208.636
 20
31.9158
 30
0.0
 40
0.5
 41
0.5
  0
VERTEX
  8
0
 10
208.32
 20
32.9001
 30
0.0
 40
0.5
 41
0.5
  0
VERTEX
  8
0
 10
207.547
 20
33.2166
 30
0.0
 40
0.5
 41
0.5
  0
VERTEX
  8
0
 10
206.738
 20
32.865
 30
0.0
 40
0.5
 41
0.5
  0
VERTEX
  8
0
 10
206.246
 20
31.5291
 30
0.0
 40
0.5
 41
0.5
  0
VERTEX
  8
0
 10
205.683
 20
31.5291
 30
0.0
 40
0.5
 41
0.5
  0
VERTEX
  8
0
 10
206.316
 20
33.2166
 30
0.0
 40
0.5
 41
0.5
  0
VERTEX
  8
0
 10
207.547
 20
33.7791
 30
0.0
 40
0.5
 41
0.5
  0
SEQEND
  8
0
  0
POLYLINE
8
0
 62
     0
 66
     1
 10
0
 20
0
 30
0.0
 70
     1
 40
0.5
 41
0.5
  0
VERTEX
  8
0
 10
213.066
 20
33.7439
 30
0.0
 40
0.5
 41
0.5
  0
VERTEX
  8
0
 10
213.066
 20
26.8884
 30
0.0
 40
0.5
 41
0.5
  0
VERTEX
  8
0
 10
212.503
 20
26.8884
 30
0.0
 40
0.5
 41
0.5
  0
VERTEX
  8
0
 10
212.503
 20
32.3728
 30
0.0
 40
0.5
 41
0.5
  0
VERTEX
  8
0
 10
211.308
 20
32.3728
 30
0.0
 40
0.5
 41
0.5
  0
VERTEX
  8
0
 10
211.308
 20
32.7595
 30
0.0
 40
0.5
 41
0.5
  0
VERTEX
  8
0
 10
212.503
 20
33.1814
 30
0.0
 40
0.5
 41
0.5
  0
VERTEX
  8
0
 10
212.784
 20
33.7439
 30
0.0
 40
0.5
 41
0.5
  0
VERTEX
  8
0
 10
213.066
 20
33.7439
 30
0.0
 40
0.5
 41
0.5
  0
SEQEND
  8
0
  0
POLYLINE
8
0
 62
     0
 66
     1
 10
0
 20
0
 30
0.0
 70
     1
 40
0.5
 41
0.5
  0
VERTEX
  8
0
 10
216.194
 20
29.8767
 30
0.0
 40
0.5
 41
0.5
  0
VERTEX
  8
0
 10
216.44
 20
33.7439
 30
0.0
 40
0.5
 41
0.5
  0
VERTEX
  8
0
 10
219.534
 20
33.7439
 30
0.0
 40
0.5
 41
0.5
  0
VERTEX
  8
0
 10
219.534
 20
33.1814
 30
0.0
 40
0.5
 41
0.5
  0
VERTEX
  8
0
 10
216.897
 20
33.1814
 30
0.0
 40
0.5
 41
0.5
  0
VERTEX
  8
0
 10
216.722
 20
30.7556
 30
0.0
 40
0.5
 41
0.5
  0
VERTEX
  8
0
 10
217.952
 20
31.3533
 30
0.0
 40
0.5
 41
0.5
  0
VERTEX
  8
0
 10
219.183
 20
30.8962
 30
0.0
 40
0.5
 41
0.5
  0
VERTEX
  8
0
 10
219.71
 20
29.2087
 30
0.0
 40
0.5
 41
0.5
  0
VERTEX
  8
0
 10
219.112
 20
27.3455
 30
0.0
 40
0.5
 41
0.5
  0
VERTEX
  8
0
 10
217.882
 20
26.8884
 30
0.0
 40
0.5
 41
0.5
  0
VERTEX
  8
0
 10
216.651
 20
27.3806
 30
0.0
 40
0.5
 41
0.5
  0
VERTEX
  8
0
 10
216.019
 20
28.6814
 30
0.0
 40
0.5
 41
0.5
  0
VERTEX
  8
0
 10
216.616
 20
28.6814
 30
0.0
 40
0.5
 41
0.5
  0
VERTEX
  8
0
 10
217.038
 20
27.8025
 30
0.0
 40
0.5
 41
0.5
  0
VERTEX
  8
0
 10
217.882
 20
27.4509
 30
0.0
 40
0.5
 41
0.5
  0
VERTEX
  8
0
 10
218.69
 20
27.7673
 30
0.0
 40
0.5
 41
0.5
  0
VERTEX
  8
0
 10
219.147
 20
29.2087
 30
0.0
 40
0.5
 41
0.5
  0
VERTEX
  8
0
 10
218.796
 20
30.4744
 30
0.0
 40
0.5
 41
0.5
  0
VERTEX
  8
0
 10
217.952
 20
30.7908
 30
0.0
 40
0.5
 41
0.5
  0
VERTEX
  8
0
 10
217.038
 20
30.4041
 30
0.0
 40
0.5
 41
0.5
  0
VERTEX
  8
0
 10
216.686
 20
29.8767
 30
0.0
 40
0.5
 41
0.5
  0
VERTEX
  8
0
 10
216.194
 20
29.8767
 30
0.0
 40
0.5
 41
0.5
  0
SEQEND
  8
0
  0
POLYLINE
8
0
 62
     0
 66
     1
 10
0
 20
0
 30
0.0
 70
     1
 40
0.5
 41
0.5
  0
VERTEX
  8
0
 10
221.713
 20
27.6267
 30
0.0
 40
0.5
 41
0.5
  0
VERTEX
  8
0
 10
221.713
 20
26.8884
 30
0.0
 40
0.5
 41
0.5
  0
VERTEX
  8
0
 10
221.01
 20
26.8884
 30
0.0
 40
0.5
 41
0.5
  0
VERTEX
  8
0
 10
221.01
 20
27.6267
 30
0.0
 40
0.5
 41
0.5
  0
VERTEX
  8
0
 10
221.713
 20
27.6267
 30
0.0
 40
0.5
 41
0.5
  0
SEQEND
  8
0
  0
POLYLINE
8
0
 62
     0
 66
     1
 10
0
 20
0
 30
0.0
 70
     1
 40
0.5
 41
0.5
  0
VERTEX
  8
0
 10
224.885
 20
33.1814
 30
0.0
 40
0.5
 41
0.5
  0
VERTEX
  8
0
 10
224.006
 20
32.7947
 30
0.0
 40
0.5
 41
0.5
  0
VERTEX
  8
0
 10
223.443
 20
30.2986
 30
0.0
 40
0.5
 41
0.5
  0
VERTEX
  8
0
 10
224.006
 20
27.8376
 30
0.0
 40
0.5
 41
0.5
  0
VERTEX
  8
0
 10
224.885
 20
27.4509
 30
0.0
 40
0.5
 41
0.5
  0
VERTEX
  8
0
 10
225.763
 20
27.8376
 30
0.0
 40
0.5
 41
0.5
  0
VERTEX
  8
0
 10
226.326
 20
30.2986
 30
0.0
 40
0.5
 41
0.5
  0
VERTEX
  8
0
 10
225.763
 20
32.7947
 30
0.0
 40
0.5
 41
0.5
  0
VERTEX
  8
0
 10
224.885
 20
33.1814
 30
0.0
 40
0.5
 41
0.5
  0
SEQEND
  8
0
  0
POLYLINE
8
0
 62
     0
 66
     1
 10
0
 20
0
 30
0.0
 70
     1
 40
0.5
 41
0.5
  0
VERTEX
  8
0
 10
224.885
 20
33.7439
 30
0.0
 40
0.5
 41
0.5
  0
VERTEX
  8
0
 10
226.115
 20
33.2166
 30
0.0
 40
0.5
 41
0.5
  0
VERTEX
  8
0
 10
226.695
 20
32.1003
 30
0.0
 40
0.5
 41
0.5
  0
VERTEX
  8
0
 10
226.888
 20
30.2986
 30
0.0
 40
0.5
 41
0.5
  0
VERTEX
  8
0
 10
226.695
 20
28.5232
 30
0.0
 40
0.5
 41
0.5
  0
VERTEX
  8
0
 10
226.115
 20
27.4158
 30
0.0
 40
0.5
 41
0.5
  0
VERTEX
  8
0
 10
224.885
 20
26.8884
 30
0.0
 40
0.5
 41
0.5
  0
VERTEX
  8
0
 10
223.654
 20
27.4158
 30
0.0
 40
0.5
 41
0.5
  0
VERTEX
  8
0
 10
223.074
 20
28.5232
 30
0.0
 40
0.5
 41
0.5
  0
VERTEX
  8
0
 10
222.881
 20
30.2986
 30
0.0
 40
0.5
 41
0.5
  0
VERTEX
  8
0
 10
223.074
 20
32.1003
 30
0.0
 40
0.5
 41
0.5
  0
VERTEX
  8
0
 10
223.654
 20
33.2166
 30
0.0
 40
0.5
 41
0.5
  0
VERTEX
  8
0
 10
224.885
 20
33.7439
 30
0.0
 40
0.5
 41
0.5
  0
SEQEND
  8
0
  0
POLYLINE
8
0
 62
     0
 66
     1
 10
0
 20
0
 30
0.0
 40
0.5
 41
0.5
  0
VERTEX
  8
0
 10
62.7664
 20
28.7778
 30
0.0
 40
0.5
 41
0.5
  0
VERTEX
  8
0
 10
62.7664
 20
62.6304
 30
0.0
 40
0.5
 41
0.5
  0
SEQEND
  8
0
  0
POLYLINE
8
0
 62
     0
 66
     1
 10
0
 20
0
 30
0.0
 40
0.5
 41
0.5
  0
VERTEX
  8
0
 10
315.787
 20
70.6755
 30
0.0
 40
0.5
 41
0.5
  0
VERTEX
  8
0
 10
316.972
 20
72.7551
 30
0.0
 40
0.5
 41
0.5
  0
SEQEND
  8
0
  0
POLYLINE
8
0
 62
     0
 66
     1
 10
0
 20
0
 30
0.0
 40
0.5
 41
0.5
  0
VERTEX
  8
0
 10
314.759
 20
71.269
 30
0.0
 40
0.5
 41
0.5
  0
VERTEX
  8
0
 10
315.961
 20
73.377
 30
0.0
 40
0.5
 41
0.5
  0
SEQEND
  8
0
  0
POLYLINE
8
0
 62
     0
 66
     1
 10
0
 20
0
 30
0.0
 40
0.5
 41
0.5
  0
VERTEX
  8
0
 10
310.549
 20
75.5085
 30
0.0
 40
0.5
 41
0.5
  0
VERTEX
  8
0
 10
312.638
 20
76.7234
 30
0.0
 40
0.5
 41
0.5
  0
SEQEND
  8
0
  0
POLYLINE
8
0
 62
     0
 66
     1
 10
0
 20
0
 30
0.0
 40
0.5
 41
0.5
  0
VERTEX
  8
0
 10
309.956
 20
76.5366
 30
0.0
 40
0.5
 41
0.5
  0
VERTEX
  8
0
 10
312.059
 20
77.7598
 30
0.0
 40
0.5
 41
0.5
  0
SEQEND
  8
0
  0
POLYLINE
8
0
 62
     0
 66
     1
 10
0
 20
0
 30
0.0
 40
0.5
 41
0.5
  0
VERTEX
  8
0
 10
308.429
 20
82.313
 30
0.0
 40
0.5
 41
0.5
  0
VERTEX
  8
0
 10
310.824
 20
82.313
 30
0.0
 40
0.5
 41
0.5
  0
SEQEND
  8
0
  0
POLYLINE
8
0
 62
     0
 66
     1
 10
0
 20
0
 30
0.0
 40
0.5
 41
0.5
  0
VERTEX
  8
0
 10
308.429
 20
83.5002
 30
0.0
 40
0.5
 41
0.5
  0
VERTEX
  8
0
 10
310.861
 20
83.5002
 30
0.0
 40
0.5
 41
0.5
  0
SEQEND
  8
0
  0
POLYLINE
8
0
 62
     0
 66
     1
 10
0
 20
0
 30
0.0
 40
0.5
 41
0.5
  0
VERTEX
  8
0
 10
309.996
 20
89.2659
 30
0.0
 40
0.5
 41
0.5
  0
VERTEX
  8
0
 10
312.085
 20
88.0505
 30
0.0
 40
0.5
 41
0.5
  0
SEQEND
  8
0
  0
POLYLINE
8
0
 62
     0
 66
     1
 10
0
 20
0
 30
0.0
 40
0.5
 41
0.5
  0
VERTEX
  8
0
 10
310.589
 20
90.2939
 30
0.0
 40
0.5
 41
0.5
  0
VERTEX
  8
0
 10
312.67
 20
89.0837
 30
0.0
 40
0.5
 41
0.5
  0
SEQEND
  8
0
  0
POLYLINE
8
0
 62
     0
 66
     1
 10
0
 20
0
 30
0.0
 40
0.5
 41
0.5
  0
VERTEX
  8
0
 10
314.828
 20
94.5042
 30
0.0
 40
0.5
 41
0.5
  0
VERTEX
  8
0
 10
316.032
 20
92.3918
 30
0.0
 40
0.5
 41
0.5
  0
SEQEND
  8
0
  0
POLYLINE
8
0
 62
     0
 66
     1
 10
0
 20
0
 30
0.0
 40
0.5
 41
0.5
  0
VERTEX
  8
0
 10
315.856
 20
95.0977
 30
0.0
 40
0.5
 41
0.5
  0
VERTEX
  8
0
 10
317.061
 20
92.9846
 30
0.0
 40
0.5
 41
0.5
  0
SEQEND
  8
0
  0
POLYLINE
8
0
 62
     0
 66
     1
 10
0
 20
0
 30
0.0
 40
0.5
 41
0.5
  0
VERTEX
  8
0
 10
321.633
 20
96.624
 30
0.0
 40
0.5
 41
0.5
  0
VERTEX
  8
0
 10
321.617
 20
94.1851
 30
0.0
 40
0.5
 41
0.5
  0
SEQEND
  8
0
  0
POLYLINE
8
0
 62
     0
 66
     1
 10
0
 20
0
 30
0.0
 40
0.5
 41
0.5
  0
VERTEX
  8
0
 10
322.82
 20
96.624
 30
0.0
 40
0.5
 41
0.5
  0
VERTEX
  8
0
 10
322.804
 20
94.1943
 30
0.0
 40
0.5
 41
0.5
  0
SEQEND
  8
0
  0
POLYLINE
8
0
 62
     0
 66
     1
 10
0
 20
0
 30
0.0
 40
0.5
 41
0.5
  0
VERTEX
  8
0
 10
328.586
 20
95.0579
 30
0.0
 40
0.5
 41
0.5
  0
VERTEX
  8
0
 10
327.346
 20
92.9387
 30
0.0
 40
0.5
 41
0.5
  0
SEQEND
  8
0
  0
POLYLINE
8
0
 62
     0
 66
     1
 10
0
 20
0
 30
0.0
 40
0.5
 41
0.5
  0
VERTEX
  8
0
 10
329.614
 20
94.4644
 30
0.0
 40
0.5
 41
0.5
  0
VERTEX
  8
0
 10
328.379
 20
92.3525
 30
0.0
 40
0.5
 41
0.5
  0
SEQEND
  8
0
  0
POLYLINE
8
0
 62
     0
 66
     1
 10
0
 20
0
 30
0.0
 40
0.5
 41
0.5
  0
VERTEX
  8
0
 10
333.824
 20
90.2249
 30
0.0
 40
0.5
 41
0.5
  0
VERTEX
  8
0
 10
331.697
 20
89.0061
 30
0.0
 40
0.5
 41
0.5
  0
SEQEND
  8
0
  0
POLYLINE
8
0
 62
     0
 66
     1
 10
0
 20
0
 30
0.0
 40
0.5
 41
0.5
  0
VERTEX
  8
0
 10
334.417
 20
89.197
 30
0.0
 40
0.5
 41
0.5
  0
VERTEX
  8
0
 10
332.297
 20
87.9814
 30
0.0
 40
0.5
 41
0.5
  0
SEQEND
  8
0
  0
POLYLINE
8
0
 62
     0
 66
     1
 10
0
 20
0
 30
0.0
 40
0.5
 41
0.5
  0
VERTEX
  8
0
 10
335.944
 20
83.4204
 30
0.0
 40
0.5
 41
0.5
  0
VERTEX
  8
0
 10
333.51
 20
83.4204
 30
0.0
 40
0.5
 41
0.5
  0
SEQEND
  8
0
  0
POLYLINE
8
0
 62
     0
 66
     1
 10
0
 20
0
 30
0.0
 40
0.5
 41
0.5
  0
VERTEX
  8
0
 10
335.944
 20
82.2334
 30
0.0
 40
0.5
 41
0.5
  0
VERTEX
  8
0
 10
333.51
 20
82.2334
 30
0.0
 40
0.5
 41
0.5
  0
SEQEND
  8
0
  0
POLYLINE
8
0
 62
     0
 66
     1
 10
0
 20
0
 30
0.0
 40
0.5
 41
0.5
  0
VERTEX
  8
0
 10
334.378
 20
76.4675
 30
0.0
 40
0.5
 41
0.5
  0
VERTEX
  8
0
 10
332.255
 20
77.6841
 30
0.0
 40
0.5
 41
0.5
  0
SEQEND
  8
0
  0
POLYLINE
8
0
 62
     0
 66
     1
 10
0
 20
0
 30
0.0
 40
0.5
 41
0.5
  0
VERTEX
  8
0
 10
333.784
 20
75.4395
 30
0.0
 40
0.5
 41
0.5
  0
VERTEX
  8
0
 10
331.676
 20
76.6477
 30
0.0
 40
0.5
 41
0.5
  0
SEQEND
  8
0
  0
POLYLINE
8
0
 62
     0
 66
     1
 10
0
 20
0
 30
0.0
 40
0.5
 41
0.5
  0
VERTEX
  8
0
 10
329.545
 20
71.2292
 30
0.0
 40
0.5
 41
0.5
  0
VERTEX
  8
0
 10
328.302
 20
73.3547
 30
0.0
 40
0.5
 41
0.5
  0
SEQEND
  8
0
  0
POLYLINE
8
0
 62
     0
 66
     1
 10
0
 20
0
 30
0.0
 40
0.5
 41
0.5
  0
VERTEX
  8
0
 10
328.517
 20
70.6357
 30
0.0
 40
0.5
 41
0.5
  0
VERTEX
  8
0
 10
327.284
 20
72.7439
 30
0.0
 40
0.5
 41
0.5
  0
SEQEND
  8
0
  0
POLYLINE
8
0
 62
     0
 66
     1
 10
0
 20
0
 30
0.0
 70
     1
 40
0.5
 41
0.5
  0
VERTEX
  8
0
 10
27.3774
 20
124.68
 30
0.0
 40
0.5
 41
0.5
  0
VERTEX
  8
0
 10
62.8105
 20
124.68
 30
0.0
 40
0.5
 41
0.5
  0
VERTEX
  8
0
 10
62.8105
 20
62.3176
 30
0.0
 40
0.5
 41
0.5
  0
VERTEX
  8
0
 10
27.3774
 20
62.3176
 30
0.0
 40
0.5
 41
0.5
  0
VERTEX
  8
0
 10
27.3774
 20
124.68
 30
0.0
 40
0.5
 41
0.5
  0
SEQEND
  8
0
  0
POLYLINE
8
0
 62
     0
 66
     1
 10
0
 20
0
 30
0.0
 70
     1
 40
0.5
 41
0.5
  0
VERTEX
  8
0
 10
41.9207
 20
120.924
 30
0.0
 40
0.5
 41
0.5
  0
VERTEX
  8
0
 10
43.7109
 20
120.562
 30
0.0
 40
0.5
 41
0.5
  0
VERTEX
  8
0
 10
45.1699
 20
119.575
 30
0.0
 40
0.5
 41
0.5
  0
VERTEX
  8
0
 10
46.1516
 20
118.111
 30
0.0
 40
0.5
 41
0.5
  0
VERTEX
  8
0
 10
46.5112
 20
116.318
 30
0.0
 40
0.5
 41
0.5
  0
VERTEX
  8
0
 10
46.1492
 20
114.525
 30
0.0
 40
0.5
 41
0.5
  0
VERTEX
  8
0
 10
45.1621
 20
113.061
 30
0.0
 40
0.5
 41
0.5
  0
VERTEX
  8
0
 10
43.6978
 20
112.073
 30
0.0
 40
0.5
 41
0.5
  0
VERTEX
  8
0
 10
41.905
 20
111.711
 30
0.0
 40
0.5
 41
0.5
  0
VERTEX
  8
0
 10
35.5349
 20
111.711
 30
0.0
 40
0.5
 41
0.5
  0
VERTEX
  8
0
 10
33.7405
 20
112.073
 30
0.0
 40
0.5
 41
0.5
  0
VERTEX
  8
0
 10
32.2737
 20
113.061
 30
0.0
 40
0.5
 41
0.5
  0
VERTEX
  8
0
 10
31.2837
 20
114.525
 30
0.0
 40
0.5
 41
0.5
  0
VERTEX
  8
0
 10
30.9207
 20
116.318
 30
0.0
 40
0.5
 41
0.5
  0
VERTEX
  8
0
 10
31.2825
 20
118.111
 30
0.0
 40
0.5
 41
0.5
  0
VERTEX
  8
0
 10
32.2698
 20
119.575
 30
0.0
 40
0.5
 41
0.5
  0
VERTEX
  8
0
 10
33.7339
 20
120.562
 30
0.0
 40
0.5
 41
0.5
  0
VERTEX
  8
0
 10
35.5271
 20
120.924
 30
0.0
 40
0.5
 41
0.5
  0
VERTEX
  8
0
 10
41.9207
 20
120.924
 30
0.0
 40
0.5
 41
0.5
  0
SEQEND
  8
0
  0
POLYLINE
8
0
 62
     0
 66
     1
 10
0
 20
0
 30
0.0
 70
     1
 40
0.5
 41
0.5
  0
VERTEX
  8
0
 10
41.9207
 20
75.2861
 30
0.0
 40
0.5
 41
0.5
  0
VERTEX
  8
0
 10
43.7109
 20
74.9243
 30
0.0
 40
0.5
 41
0.5
  0
VERTEX
  8
0
 10
45.1699
 20
73.937
 30
0.0
 40
0.5
 41
0.5
  0
VERTEX
  8
0
 10
46.1516
 20
72.4729
 30
0.0
 40
0.5
 41
0.5
  0
VERTEX
  8
0
 10
46.5112
 20
70.6799
 30
0.0
 40
0.5
 41
0.5
  0
VERTEX
  8
0
 10
46.1492
 20
68.8872
 30
0.0
 40
0.5
 41
0.5
  0
VERTEX
  8
0
 10
45.1621
 20
67.4229
 30
0.0
 40
0.5
 41
0.5
  0
VERTEX
  8
0
 10
43.6978
 20
66.4358
 30
0.0
 40
0.5
 41
0.5
  0
VERTEX
  8
0
 10
41.905
 20
66.0737
 30
0.0
 40
0.5
 41
0.5
  0
VERTEX
  8
0
 10
35.5349
 20
66.0737
 30
0.0
 40
0.5
 41
0.5
  0
VERTEX
  8
0
 10
33.7405
 20
66.4358
 30
0.0
 40
0.5
 41
0.5
  0
VERTEX
  8
0
 10
32.2737
 20
67.4229
 30
0.0
 40
0.5
 41
0.5
  0
VERTEX
  8
0
 10
31.2837
 20
68.8872
 30
0.0
 40
0.5
 41
0.5
  0
VERTEX
  8
0
 10
30.9207
 20
70.6799
 30
0.0
 40
0.5
 41
0.5
  0
VERTEX
  8
0
 10
31.2825
 20
72.4729
 30
0.0
 40
0.5
 41
0.5
  0
VERTEX
  8
0
 10
32.2698
 20
73.937
 30
0.0
 40
0.5
 41
0.5
  0
VERTEX
  8
0
 10
33.7339
 20
74.9243
 30
0.0
 40
0.5
 41
0.5
  0
VERTEX
  8
0
 10
35.5271
 20
75.2861
 30
0.0
 40
0.5
 41
0.5
  0
VERTEX
  8
0
 10
41.9207
 20
75.2861
 30
0.0
 40
0.5
 41
0.5
  0
SEQEND
  8
0
  0
POLYLINE
8
0
 62
     0
 66
     1
 10
0
 20
0
 30
0.0
 70
     1
 40
0.5
 41
0.5
  0
VERTEX
  8
0
 10
707.692
 20
62.3201
 30
0.0
 40
0.5
 41
0.5
  0
VERTEX
  8
0
 10
367.535
 20
62.3201
 30
0.0
 40
0.5
 41
0.5
  0
VERTEX
  8
0
 10
367.535
 20
124.682
 30
0.0
 40
0.5
 41
0.5
  0
VERTEX
  8
0
 10
707.692
 20
124.682
 30
0.0
 40
0.5
 41
0.5
  0
VERTEX
  8
0
 10
707.692
 20
62.3201
 30
0.0
 40
0.5
 41
0.5
  0
SEQEND
  8
0
  0
POLYLINE
8
0
 62
     0
 66
     1
 10
0
 20
0
 30
0.0
 70
     1
 40
0.5
 41
0.5
  0
VERTEX
  8
0
 10
693.149
 20
66.0759
 30
0.0
 40
0.5
 41
0.5
  0
VERTEX
  8
0
 10
691.359
 20
66.438
 30
0.0
 40
0.5
 41
0.5
  0
VERTEX
  8
0
 10
689.9
 20
67.425
 30
0.0
 40
0.5
 41
0.5
  0
VERTEX
  8
0
 10
688.918
 20
68.8894
 30
0.0
 40
0.5
 41
0.5
  0
VERTEX
  8
0
 10
688.559
 20
70.6821
 30
0.0
 40
0.5
 41
0.5
  0
VERTEX
  8
0
 10
688.92
 20
72.4753
 30
0.0
 40
0.5
 41
0.5
  0
VERTEX
  8
0
 10
689.908
 20
73.9395
 30
0.0
 40
0.5
 41
0.5
  0
VERTEX
  8
0
 10
691.372
 20
74.9268
 30
0.0
 40
0.5
 41
0.5
  0
VERTEX
  8
0
 10
693.165
 20
75.2886
 30
0.0
 40
0.5
 41
0.5
  0
VERTEX
  8
0
 10
699.535
 20
75.2886
 30
0.0
 40
0.5
 41
0.5
  0
VERTEX
  8
0
 10
701.329
 20
74.9268
 30
0.0
 40
0.5
 41
0.5
  0
VERTEX
  8
0
 10
702.796
 20
73.9395
 30
0.0
 40
0.5
 41
0.5
  0
VERTEX
  8
0
 10
703.786
 20
72.4753
 30
0.0
 40
0.5
 41
0.5
  0
VERTEX
  8
0
 10
704.149
 20
70.6821
 30
0.0
 40
0.5
 41
0.5
  0
VERTEX
  8
0
 10
703.787
 20
68.8894
 30
0.0
 40
0.5
 41
0.5
  0
VERTEX
  8
0
 10
702.8
 20
67.425
 30
0.0
 40
0.5
 41
0.5
  0
VERTEX
  8
0
 10
701.336
 20
66.438
 30
0.0
 40
0.5
 41
0.5
  0
VERTEX
  8
0
 10
699.543
 20
66.0759
 30
0.0
 40
0.5
 41
0.5
  0
VERTEX
  8
0
 10
693.149
 20
66.0759
 30
0.0
 40
0.5
 41
0.5
  0
SEQEND
  8
0
  0
POLYLINE
8
0
 62
     0
 66
     1
 10
0
 20
0
 30
0.0
 70
     1
 40
0.5
 41
0.5
  0
VERTEX
  8
0
 10
693.149
 20
111.714
 30
0.0
 40
0.5
 41
0.5
  0
VERTEX
  8
0
 10
691.359
 20
112.076
 30
0.0
 40
0.5
 41
0.5
  0
VERTEX
  8
0
 10
689.9
 20
113.063
 30
0.0
 40
0.5
 41
0.5
  0
VERTEX
  8
0
 10
688.918
 20
114.527
 30
0.0
 40
0.5
 41
0.5
  0
VERTEX
  8
0
 10
688.559
 20
116.32
 30
0.0
 40
0.5
 41
0.5
  0
VERTEX
  8
0
 10
688.92
 20
118.113
 30
0.0
 40
0.5
 41
0.5
  0
VERTEX
  8
0
 10
689.908
 20
119.577
 30
0.0
 40
0.5
 41
0.5
  0
VERTEX
  8
0
 10
691.372
 20
120.565
 30
0.0
 40
0.5
 41
0.5
  0
VERTEX
  8
0
 10
693.165
 20
120.927
 30
0.0
 40
0.5
 41
0.5
  0
VERTEX
  8
0
 10
699.535
 20
120.927
 30
0.0
 40
0.5
 41
0.5
  0
VERTEX
  8
0
 10
701.329
 20
120.565
 30
0.0
 40
0.5
 41
0.5
  0
VERTEX
  8
0
 10
702.796
 20
119.577
 30
0.0
 40
0.5
 41
0.5
  0
VERTEX
  8
0
 10
703.786
 20
118.113
 30
0.0
 40
0.5
 41
0.5
  0
VERTEX
  8
0
 10
704.149
 20
116.32
 30
0.0
 40
0.5
 41
0.5
  0
VERTEX
  8
0
 10
703.787
 20
114.527
 30
0.0
 40
0.5
 41
0.5
  0
VERTEX
  8
0
 10
702.8
 20
113.063
 30
0.0
 40
0.5
 41
0.5
  0
VERTEX
  8
0
 10
701.336
 20
112.076
 30
0.0
 40
0.5
 41
0.5
  0
VERTEX
  8
0
 10
699.543
 20
111.714
 30
0.0
 40
0.5
 41
0.5
  0
VERTEX
  8
0
 10
693.149
 20
111.714
 30
0.0
 40
0.5
 41
0.5
  0
SEQEND
  8
0
  0
POLYLINE
8
0
 62
     0
 66
     1
 10
0
 20
0
 30
0.0
 70
     1
 40
0.5
 41
0.5
  0
VERTEX
  8
0
 10
64.229
 20
124.678
 30
0.0
 40
0.5
 41
0.5
  0
VERTEX
  8
0
 10
366.119
 20
124.678
 30
0.0
 40
0.5
 41
0.5
  0
VERTEX
  8
0
 10
366.119
 20
62.3154
 30
0.0
 40
0.5
 41
0.5
  0
VERTEX
  8
0
 10
64.229
 20
62.3154
 30
0.0
 40
0.5
 41
0.5
  0
VERTEX
  8
0
 10
64.229
 20
124.678
 30
0.0
 40
0.5
 41
0.5
  0
SEQEND
  8
0
  0
POLYLINE
8
0
 62
     0
 66
     1
 10
0
 20
0
 30
0.0
 70
     1
 40
0.5
 41
0.5
  0
VERTEX
  8
0
 10
180.095
 20
88.1594
 30
0.0
 40
0.5
 41
0.5
  0
VERTEX
  8
0
 10
180.45
 20
88.5139
 30
0.0
 40
0.5
 41
0.5
  0
VERTEX
  8
0
 10
180.804
 20
88.1594
 30
0.0
 40
0.5
 41
0.5
  0
VERTEX
  8
0
 10
180.45
 20
87.8052
 30
0.0
 40
0.5
 41
0.5
  0
VERTEX
  8
0
 10
180.095
 20
88.1594
 30
0.0
 40
0.5
 41
0.5
  0
SEQEND
  8
0
  0
POLYLINE
8
0
 62
     0
 66
     1
 10
0
 20
0
 30
0.0
 70
     1
 40
0.5
 41
0.5
  0
VERTEX
  8
0
 10
182.93
 20
77.5806
 30
0.0
 40
0.5
 41
0.5
  0
VERTEX
  8
0
 10
183.284
 20
77.9351
 30
0.0
 40
0.5
 41
0.5
  0
VERTEX
  8
0
 10
183.639
 20
77.5806
 30
0.0
 40
0.5
 41
0.5
  0
VERTEX
  8
0
 10
183.284
 20
77.2263
 30
0.0
 40
0.5
 41
0.5
  0
VERTEX
  8
0
 10
182.93
 20
77.5806
 30
0.0
 40
0.5
 41
0.5
  0
SEQEND
  8
0
  0
POLYLINE
8
0
 62
     0
 66
     1
 10
0
 20
0
 30
0.0
 70
     1
 40
0.5
 41
0.5
  0
VERTEX
  8
0
 10
177.261
 20
77.5806
 30
0.0
 40
0.5
 41
0.5
  0
VERTEX
  8
0
 10
177.615
 20
77.9351
 30
0.0
 40
0.5
 41
0.5
  0
VERTEX
  8
0
 10
177.969
 20
77.5806
 30
0.0
 40
0.5
 41
0.5
  0
VERTEX
  8
0
 10
177.615
 20
77.2263
 30
0.0
 40
0.5
 41
0.5
  0
VERTEX
  8
0
 10
177.261
 20
77.5806
 30
0.0
 40
0.5
 41
0.5
  0
SEQEND
  8
0
  0
POLYLINE
8
0
 62
     0
 66
     1
 10
0
 20
0
 30
0.0
 70
     1
 40
0.5
 41
0.5
  0
VERTEX
  8
0
 10
208.442
 20
88.1594
 30
0.0
 40
0.5
 41
0.5
  0
VERTEX
  8
0
 10
208.796
 20
88.5139
 30
0.0
 40
0.5
 41
0.5
  0
VERTEX
  8
0
 10
209.151
 20
88.1594
 30
0.0
 40
0.5
 41
0.5
  0
VERTEX
  8
0
 10
208.796
 20
87.8052
 30
0.0
 40
0.5
 41
0.5
  0
VERTEX
  8
0
 10
208.442
 20
88.1594
 30
0.0
 40
0.5
 41
0.5
  0
SEQEND
  8
0
  0
POLYLINE
8
0
 62
     0
 66
     1
 10
0
 20
0
 30
0.0
 70
     1
 40
0.5
 41
0.5
  0
VERTEX
  8
0
 10
211.277
 20
77.5806
 30
0.0
 40
0.5
 41
0.5
  0
VERTEX
  8
0
 10
211.631
 20
77.9351
 30
0.0
 40
0.5
 41
0.5
  0
VERTEX
  8
0
 10
211.985
 20
77.5806
 30
0.0
 40
0.5
 41
0.5
  0
VERTEX
  8
0
 10
211.631
 20
77.2263
 30
0.0
 40
0.5
 41
0.5
  0
VERTEX
  8
0
 10
211.277
 20
77.5806
 30
0.0
 40
0.5
 41
0.5
  0
SEQEND
  8
0
  0
POLYLINE
8
0
 62
     0
 66
     1
 10
0
 20
0
 30
0.0
 70
     1
 40
0.5
 41
0.5
  0
VERTEX
  8
0
 10
205.607
 20
77.5806
 30
0.0
 40
0.5
 41
0.5
  0
VERTEX
  8
0
 10
205.962
 20
77.9351
 30
0.0
 40
0.5
 41
0.5
  0
VERTEX
  8
0
 10
206.316
 20
77.5806
 30
0.0
 40
0.5
 41
0.5
  0
VERTEX
  8
0
 10
205.962
 20
77.2263
 30
0.0
 40
0.5
 41
0.5
  0
VERTEX
  8
0
 10
205.607
 20
77.5806
 30
0.0
 40
0.5
 41
0.5
  0
SEQEND
  8
0
  0
POLYLINE
8
0
 62
     0
 66
     1
 10
0
 20
0
 30
0.0
 70
     1
 40
0.5
 41
0.5
  0
VERTEX
  8
0
 10
204.544
 20
82.8701
 30
0.0
 40
0.5
 41
0.5
  0
VERTEX
  8
0
 10
204.878
 20
84.5251
 30
0.0
 40
0.5
 41
0.5
  0
VERTEX
  8
0
 10
205.79
 20
85.8767
 30
0.0
 40
0.5
 41
0.5
  0
VERTEX
  8
0
 10
207.141
 20
86.7878
 30
0.0
 40
0.5
 41
0.5
  0
VERTEX
  8
0
 10
208.796
 20
87.1218
 30
0.0
 40
0.5
 41
0.5
  0
VERTEX
  8
0
 10
210.451
 20
86.7878
 30
0.0
 40
0.5
 41
0.5
  0
VERTEX
  8
0
 10
211.803
 20
85.8767
 30
0.0
 40
0.5
 41
0.5
  0
VERTEX
  8
0
 10
212.714
 20
84.5251
 30
0.0
 40
0.5
 41
0.5
  0
VERTEX
  8
0
 10
213.048
 20
82.8701
 30
0.0
 40
0.5
 41
0.5
  0
VERTEX
  8
0
 10
212.714
 20
81.2153
 30
0.0
 40
0.5
 41
0.5
  0
VERTEX
  8
0
 10
211.803
 20
79.8638
 30
0.0
 40
0.5
 41
0.5
  0
VERTEX
  8
0
 10
210.451
 20
78.9526
 30
0.0
 40
0.5
 41
0.5
  0
VERTEX
  8
0
 10
208.796
 20
78.6184
 30
0.0
 40
0.5
 41
0.5
  0
VERTEX
  8
0
 10
207.141
 20
78.9526
 30
0.0
 40
0.5
 41
0.5
  0
VERTEX
  8
0
 10
205.79
 20
79.8638
 30
0.0
 40
0.5
 41
0.5
  0
VERTEX
  8
0
 10
204.878
 20
81.2153
 30
0.0
 40
0.5
 41
0.5
  0
VERTEX
  8
0
 10
204.544
 20
82.8701
 30
0.0
 40
0.5
 41
0.5
  0
SEQEND
  8
0
  0
POLYLINE
8
0
 62
     0
 66
     1
 10
0
 20
0
 30
0.0
 70
     1
 40
0.5
 41
0.5
  0
VERTEX
  8
0
 10
208.477
 20
78.6201
 30
0.0
 40
0.5
 41
0.5
  0
VERTEX
  8
0
 10
208.477
 20
87.1201
 30
0.0
 40
0.5
 41
0.5
  0
VERTEX
  8
0
 10
209.29
 20
87.1201
 30
0.0
 40
0.5
 41
0.5
  0
VERTEX
  8
0
 10
209.29
 20
78.6201
 30
0.0
 40
0.5
 41
0.5
  0
VERTEX
  8
0
 10
208.477
 20
78.6201
 30
0.0
 40
0.5
 41
0.5
  0
SEQEND
  8
0
  0
POLYLINE
8
0
 62
     0
 66
     1
 10
0
 20
0
 30
0.0
 70
     1
 40
0.5
 41
0.5
  0
VERTEX
  8
0
 10
261.524
 20
96.3347
 30
0.0
 40
0.5
 41
0.5
  0
VERTEX
  8
0
 10
275.13
 20
96.3347
 30
0.0
 40
0.5
 41
0.5
  0
VERTEX
  8
0
 10
275.13
 20
77.9094
 30
0.0
 40
0.5
 41
0.5
  0
VERTEX
  8
0
 10
261.524
 20
77.9094
 30
0.0
 40
0.5
 41
0.5
  0
VERTEX
  8
0
 10
261.524
 20
96.3347
 30
0.0
 40
0.5
 41
0.5
  0
SEQEND
  8
0
  0
POLYLINE
8
0
 62
     0
 66
     1
 10
0
 20
0
 30
0.0
 70
     1
 40
0.5
 41
0.5
  0
VERTEX
  8
0
 10
266.755
 20
94.554
 30
0.0
 40
0.5
 41
0.5
  0
VERTEX
  8
0
 10
271.718
 20
94.554
 30
0.0
 40
0.5
 41
0.5
  0
VERTEX
  8
0
 10
272.229
 20
93.8479
 30
0.0
 40
0.5
 41
0.5
  0
VERTEX
  8
0
 10
271.446
 20
93.2104
 30
0.0
 40
0.5
 41
0.5
  0
VERTEX
  8
0
 10
266.661
 20
93.2104
 30
0.0
 40
0.5
 41
0.5
  0
VERTEX
  8
0
 10
266.181
 20
94.0742
 30
0.0
 40
0.5
 41
0.5
  0
VERTEX
  8
0
 10
266.755
 20
94.554
 30
0.0
 40
0.5
 41
0.5
  0
SEQEND
  8
0
  0
POLYLINE
8
0
 62
     0
 66
     1
 10
0
 20
0
 30
0.0
 70
     1
 40
0.5
 41
0.5
  0
VERTEX
  8
0
 10
272.229
 20
93.8479
 30
0.0
 40
0.5
 41
0.5
  0
VERTEX
  8
0
 10
272.702
 20
93.1692
 30
0.0
 40
0.5
 41
0.5
  0
VERTEX
  8
0
 10
271.964
 20
87.801
 30
0.0
 40
0.5
 41
0.5
  0
VERTEX
  8
0
 10
271.257
 20
87.1223
 30
0.0
 40
0.5
 41
0.5
  0
VERTEX
  8
0
 10
270.708
 20
87.7598
 30
0.0
 40
0.5
 41
0.5
  0
VERTEX
  8
0
 10
271.427
 20
93.231
 30
0.0
 40
0.5
 41
0.5
  0
VERTEX
  8
0
 10
272.229
 20
93.8479
 30
0.0
 40
0.5
 41
0.5
  0
SEQEND
  8
0
  0
POLYLINE
8
0
 62
     0
 66
     1
 10
0
 20
0
 30
0.0
 70
     1
 40
0.5
 41
0.5
  0
VERTEX
  8
0
 10
266.623
 20
93.2927
 30
0.0
 40
0.5
 41
0.5
  0
VERTEX
  8
0
 10
265.759
 20
87.7019
 30
0.0
 40
0.5
 41
0.5
  0
VERTEX
  8
0
 10
265.177
 20
87.3486
 30
0.0
 40
0.5
 41
0.5
  0
VERTEX
  8
0
 10
264.609
 20
87.9861
 30
0.0
 40
0.5
 41
0.5
  0
VERTEX
  8
0
 10
265.329
 20
93.3955
 30
0.0
 40
0.5
 41
0.5
  0
VERTEX
  8
0
 10
266.2
 20
94.0742
 30
0.0
 40
0.5
 41
0.5
  0
VERTEX
  8
0
 10
266.623
 20
93.2927
 30
0.0
 40
0.5
 41
0.5
  0
SEQEND
  8
0
  0
POLYLINE
8
0
 62
     0
 66
     1
 10
0
 20
0
 30
0.0
 70
     1
 40
0.5
 41
0.5
  0
VERTEX
  8
0
 10
265.802
 20
87.728
 30
0.0
 40
0.5
 41
0.5
  0
VERTEX
  8
0
 10
270.726
 20
87.728
 30
0.0
 40
0.5
 41
0.5
  0
VERTEX
  8
0
 10
271.257
 20
87.1223
 30
0.0
 40
0.5
 41
0.5
  0
VERTEX
  8
0
 10
270.632
 20
86.5657
 30
0.0
 40
0.5
 41
0.5
  0
VERTEX
  8
0
 10
265.688
 20
86.5657
 30
0.0
 40
0.5
 41
0.5
  0
VERTEX
  8
0
 10
265.196
 20
87.3896
 30
0.0
 40
0.5
 41
0.5
  0
VERTEX
  8
0
 10
265.802
 20
87.728
 30
0.0
 40
0.5
 41
0.5
  0
SEQEND
  8
0
  0
POLYLINE
8
0
 62
     0
 66
     1
 10
0
 20
0
 30
0.0
 70
     1
 40
0.5
 41
0.5
  0
VERTEX
  8
0
 10
271.238
 20
87.1428
 30
0.0
 40
0.5
 41
0.5
  0
VERTEX
  8
0
 10
271.755
 20
86.5806
 30
0.0
 40
0.5
 41
0.5
  0
VERTEX
  8
0
 10
271.067
 20
81.1301
 30
0.0
 40
0.5
 41
0.5
  0
VERTEX
  8
0
 10
270.329
 20
80.5955
 30
0.0
 40
0.5
 41
0.5
  0
VERTEX
  8
0
 10
269.817
 20
81.1782
 30
0.0
 40
0.5
 41
0.5
  0
VERTEX
  8
0
 10
270.537
 20
86.4985
 30
0.0
 40
0.5
 41
0.5
  0
VERTEX
  8
0
 10
271.238
 20
87.1428
 30
0.0
 40
0.5
 41
0.5
  0
SEQEND
  8
0
  0
POLYLINE
8
0
 62
     0
 66
     1
 10
0
 20
0
 30
0.0
 70
     1
 40
0.5
 41
0.5
  0
VERTEX
  8
0
 10
265.177
 20
87.3691
 30
0.0
 40
0.5
 41
0.5
  0
VERTEX
  8
0
 10
265.669
 20
86.7246
 30
0.0
 40
0.5
 41
0.5
  0
VERTEX
  8
0
 10
264.988
 20
81.3633
 30
0.0
 40
0.5
 41
0.5
  0
VERTEX
  8
0
 10
264.243
 20
80.8835
 30
0.0
 40
0.5
 41
0.5
  0
VERTEX
  8
0
 10
263.75
 20
81.3633
 30
0.0
 40
0.5
 41
0.5
  0
VERTEX
  8
0
 10
264.47
 20
86.6013
 30
0.0
 40
0.5
 41
0.5
  0
VERTEX
  8
0
 10
265.177
 20
87.3691
 30
0.0
 40
0.5
 41
0.5
  0
SEQEND
  8
0
  0
POLYLINE
8
0
 62
     0
 66
     1
 10
0
 20
0
 30
0.0
 70
     1
 40
0.5
 41
0.5
  0
VERTEX
  8
0
 10
264.75
 20
81.1465
 30
0.0
 40
0.5
 41
0.5
  0
VERTEX
  8
0
 10
269.798
 20
81.1465
 30
0.0
 40
0.5
 41
0.5
  0
VERTEX
  8
0
 10
270.044
 20
80.8787
 30
0.0
 40
0.5
 41
0.5
  0
VERTEX
  8
0
 10
270.291
 20
80.5955
 30
0.0
 40
0.5
 41
0.5
  0
VERTEX
  8
0
 10
269.861
 20
80.2588
 30
0.0
 40
0.5
 41
0.5
  0
VERTEX
  8
0
 10
269.432
 20
79.9373
 30
0.0
 40
0.5
 41
0.5
  0
VERTEX
  8
0
 10
265.007
 20
79.9373
 30
0.0
 40
0.5
 41
0.5
  0
VERTEX
  8
0
 10
264.205
 20
80.8835
 30
0.0
 40
0.5
 41
0.5
  0
VERTEX
  8
0
 10
264.75
 20
81.1465
 30
0.0
 40
0.5
 41
0.5
  0
SEQEND
  8
0
  0
POLYLINE
8
0
 62
     0
 66
     1
 10
0
 20
0
 30
0.0
 70
     1
 40
0.5
 41
0.5
  0
VERTEX
  8
0
 10
272.286
 20
80.7634
 30
0.0
 40
0.5
 41
0.5
  0
VERTEX
  8
0
 10
272.497
 20
81.3186
 30
0.0
 40
0.5
 41
0.5
  0
VERTEX
  8
0
 10
273.009
 20
81.5483
 30
0.0
 40
0.5
 41
0.5
  0
VERTEX
  8
0
 10
273.52
 20
81.3186
 30
0.0
 40
0.5
 41
0.5
  0
VERTEX
  8
0
 10
273.731
 20
80.7634
 30
0.0
 40
0.5
 41
0.5
  0
VERTEX
  8
0
 10
273.52
 20
80.2083
 30
0.0
 40
0.5
 41
0.5
  0
VERTEX
  8
0
 10
273.009
 20
79.9783
 30
0.0
 40
0.5
 41
0.5
  0
VERTEX
  8
0
 10
272.497
 20
80.2083
 30
0.0
 40
0.5
 41
0.5
  0
VERTEX
  8
0
 10
272.286
 20
80.7634
 30
0.0
 40
0.5
 41
0.5
  0
SEQEND
  8
0
  0
POLYLINE
8
0
 62
     0
 66
     1
 10
0
 20
0
 30
0.0
 70
     1
 40
0.5
 41
0.5
  0
VERTEX
  8
0
 10
275.924
 20
96.3347
 30
0.0
 40
0.5
 41
0.5
  0
VERTEX
  8
0
 10
289.53
 20
96.3347
 30
0.0
 40
0.5
 41
0.5
  0
VERTEX
  8
0
 10
289.53
 20
77.9094
 30
0.0
 40
0.5
 41
0.5
  0
VERTEX
  8
0
 10
275.924
 20
77.9094
 30
0.0
 40
0.5
 41
0.5
  0
VERTEX
  8
0
 10
275.924
 20
96.3347
 30
0.0
 40
0.5
 41
0.5
  0
SEQEND
  8
0
  0
POLYLINE
8
0
 62
     0
 66
     1
 10
0
 20
0
 30
0.0
 70
     1
 40
0.5
 41
0.5
  0
VERTEX
  8
0
 10
281.156
 20
94.554
 30
0.0
 40
0.5
 41
0.5
  0
VERTEX
  8
0
 10
286.117
 20
94.554
 30
0.0
 40
0.5
 41
0.5
  0
VERTEX
  8
0
 10
286.629
 20
93.8479
 30
0.0
 40
0.5
 41
0.5
  0
VERTEX
  8
0
 10
285.846
 20
93.2104
 30
0.0
 40
0.5
 41
0.5
  0
VERTEX
  8
0
 10
281.061
 20
93.2104
 30
0.0
 40
0.5
 41
0.5
  0
VERTEX
  8
0
 10
280.581
 20
94.0742
 30
0.0
 40
0.5
 41
0.5
  0
VERTEX
  8
0
 10
281.156
 20
94.554
 30
0.0
 40
0.5
 41
0.5
  0
SEQEND
  8
0
  0
POLYLINE
8
0
 62
     0
 66
     1
 10
0
 20
0
 30
0.0
 70
     1
 40
0.5
 41
0.5
  0
VERTEX
  8
0
 10
286.629
 20
93.8479
 30
0.0
 40
0.5
 41
0.5
  0
VERTEX
  8
0
 10
287.102
 20
93.1692
 30
0.0
 40
0.5
 41
0.5
  0
VERTEX
  8
0
 10
286.364
 20
87.801
 30
0.0
 40
0.5
 41
0.5
  0
VERTEX
  8
0
 10
285.657
 20
87.1223
 30
0.0
 40
0.5
 41
0.5
  0
VERTEX
  8
0
 10
285.107
 20
87.7598
 30
0.0
 40
0.5
 41
0.5
  0
VERTEX
  8
0
 10
285.827
 20
93.231
 30
0.0
 40
0.5
 41
0.5
  0
VERTEX
  8
0
 10
286.629
 20
93.8479
 30
0.0
 40
0.5
 41
0.5
  0
SEQEND
  8
0
  0
POLYLINE
8
0
 62
     0
 66
     1
 10
0
 20
0
 30
0.0
 70
     1
 40
0.5
 41
0.5
  0
VERTEX
  8
0
 10
281.023
 20
93.2927
 30
0.0
 40
0.5
 41
0.5
  0
VERTEX
  8
0
 10
280.159
 20
87.7019
 30
0.0
 40
0.5
 41
0.5
  0
VERTEX
  8
0
 10
279.577
 20
87.3486
 30
0.0
 40
0.5
 41
0.5
  0
VERTEX
  8
0
 10
279.009
 20
87.9861
 30
0.0
 40
0.5
 41
0.5
  0
VERTEX
  8
0
 10
279.729
 20
93.3955
 30
0.0
 40
0.5
 41
0.5
  0
VERTEX
  8
0
 10
280.6
 20
94.0742
 30
0.0
 40
0.5
 41
0.5
  0
VERTEX
  8
0
 10
281.023
 20
93.2927
 30
0.0
 40
0.5
 41
0.5
  0
SEQEND
  8
0
  0
POLYLINE
8
0
 62
     0
 66
     1
 10
0
 20
0
 30
0.0
 70
     1
 40
0.5
 41
0.5
  0
VERTEX
  8
0
 10
280.202
 20
87.728
 30
0.0
 40
0.5
 41
0.5
  0
VERTEX
  8
0
 10
285.126
 20
87.728
 30
0.0
 40
0.5
 41
0.5
  0
VERTEX
  8
0
 10
285.657
 20
87.1223
 30
0.0
 40
0.5
 41
0.5
  0
VERTEX
  8
0
 10
285.032
 20
86.5657
 30
0.0
 40
0.5
 41
0.5
  0
VERTEX
  8
0
 10
280.088
 20
86.5657
 30
0.0
 40
0.5
 41
0.5
  0
VERTEX
  8
0
 10
279.596
 20
87.3896
 30
0.0
 40
0.5
 41
0.5
  0
VERTEX
  8
0
 10
280.202
 20
87.728
 30
0.0
 40
0.5
 41
0.5
  0
SEQEND
  8
0
  0
POLYLINE
8
0
 62
     0
 66
     1
 10
0
 20
0
 30
0.0
 70
     1
 40
0.5
 41
0.5
  0
VERTEX
  8
0
 10
285.638
 20
87.1428
 30
0.0
 40
0.5
 41
0.5
  0
VERTEX
  8
0
 10
286.156
 20
86.5806
 30
0.0
 40
0.5
 41
0.5
  0
VERTEX
  8
0
 10
285.467
 20
81.1301
 30
0.0
 40
0.5
 41
0.5
  0
VERTEX
  8
0
 10
284.729
 20
80.5955
 30
0.0
 40
0.5
 41
0.5
  0
VERTEX
  8
0
 10
284.217
 20
81.1782
 30
0.0
 40
0.5
 41
0.5
  0
VERTEX
  8
0
 10
284.937
 20
86.4985
 30
0.0
 40
0.5
 41
0.5
  0
VERTEX
  8
0
 10
285.638
 20
87.1428
 30
0.0
 40
0.5
 41
0.5
  0
SEQEND
  8
0
  0
POLYLINE
8
0
 62
     0
 66
     1
 10
0
 20
0
 30
0.0
 70
     1
 40
0.5
 41
0.5
  0
VERTEX
  8
0
 10
279.577
 20
87.3691
 30
0.0
 40
0.5
 41
0.5
  0
VERTEX
  8
0
 10
280.07
 20
86.7246
 30
0.0
 40
0.5
 41
0.5
  0
VERTEX
  8
0
 10
279.388
 20
81.3633
 30
0.0
 40
0.5
 41
0.5
  0
VERTEX
  8
0
 10
278.643
 20
80.8835
 30
0.0
 40
0.5
 41
0.5
  0
VERTEX
  8
0
 10
278.15
 20
81.3633
 30
0.0
 40
0.5
 41
0.5
  0
VERTEX
  8
0
 10
278.87
 20
86.6013
 30
0.0
 40
0.5
 41
0.5
  0
VERTEX
  8
0
 10
279.577
 20
87.3691
 30
0.0
 40
0.5
 41
0.5
  0
SEQEND
  8
0
  0
POLYLINE
8
0
 62
     0
 66
     1
 10
0
 20
0
 30
0.0
 70
     1
 40
0.5
 41
0.5
  0
VERTEX
  8
0
 10
279.15
 20
81.1465
 30
0.0
 40
0.5
 41
0.5
  0
VERTEX
  8
0
 10
284.198
 20
81.1465
 30
0.0
 40
0.5
 41
0.5
  0
VERTEX
  8
0
 10
284.444
 20
80.8787
 30
0.0
 40
0.5
 41
0.5
  0
VERTEX
  8
0
 10
284.691
 20
80.5955
 30
0.0
 40
0.5
 41
0.5
  0
VERTEX
  8
0
 10
284.261
 20
80.2588
 30
0.0
 40
0.5
 41
0.5
  0
VERTEX
  8
0
 10
283.832
 20
79.9373
 30
0.0
 40
0.5
 41
0.5
  0
VERTEX
  8
0
 10
279.406
 20
79.9373
 30
0.0
 40
0.5
 41
0.5
  0
VERTEX
  8
0
 10
278.605
 20
80.8835
 30
0.0
 40
0.5
 41
0.5
  0
VERTEX
  8
0
 10
279.15
 20
81.1465
 30
0.0
 40
0.5
 41
0.5
  0
SEQEND
  8
0
  0
POLYLINE
8
0
 62
     0
 66
     1
 10
0
 20
0
 30
0.0
 70
     1
 40
0.5
 41
0.5
  0
VERTEX
  8
0
 10
286.686
 20
80.7634
 30
0.0
 40
0.5
 41
0.5
  0
VERTEX
  8
0
 10
286.897
 20
81.3186
 30
0.0
 40
0.5
 41
0.5
  0
VERTEX
  8
0
 10
287.409
 20
81.5483
 30
0.0
 40
0.5
 41
0.5
  0
VERTEX
  8
0
 10
287.92
 20
81.3186
 30
0.0
 40
0.5
 41
0.5
  0
VERTEX
  8
0
 10
288.131
 20
80.7634
 30
0.0
 40
0.5
 41
0.5
  0
VERTEX
  8
0
 10
287.92
 20
80.2083
 30
0.0
 40
0.5
 41
0.5
  0
VERTEX
  8
0
 10
287.409
 20
79.9783
 30
0.0
 40
0.5
 41
0.5
  0
VERTEX
  8
0
 10
286.897
 20
80.2083
 30
0.0
 40
0.5
 41
0.5
  0
VERTEX
  8
0
 10
286.686
 20
80.7634
 30
0.0
 40
0.5
 41
0.5
  0
SEQEND
  8
0
  0
POLYLINE
8
0
 62
     0
 66
     1
 10
0
 20
0
 30
0.0
 70
     1
 40
0.5
 41
0.5
  0
VERTEX
  8
0
 10
247.124
 20
96.3347
 30
0.0
 40
0.5
 41
0.5
  0
VERTEX
  8
0
 10
260.73
 20
96.3347
 30
0.0
 40
0.5
 41
0.5
  0
VERTEX
  8
0
 10
260.73
 20
77.9094
 30
0.0
 40
0.5
 41
0.5
  0
VERTEX
  8
0
 10
247.124
 20
77.9094
 30
0.0
 40
0.5
 41
0.5
  0
VERTEX
  8
0
 10
247.124
 20
96.3347
 30
0.0
 40
0.5
 41
0.5
  0
SEQEND
  8
0
  0
POLYLINE
8
0
 62
     0
 66
     1
 10
0
 20
0
 30
0.0
 70
     1
 40
0.5
 41
0.5
  0
VERTEX
  8
0
 10
252.355
 20
94.554
 30
0.0
 40
0.5
 41
0.5
  0
VERTEX
  8
0
 10
257.317
 20
94.554
 30
0.0
 40
0.5
 41
0.5
  0
VERTEX
  8
0
 10
257.829
 20
93.8479
 30
0.0
 40
0.5
 41
0.5
  0
VERTEX
  8
0
 10
257.046
 20
93.2104
 30
0.0
 40
0.5
 41
0.5
  0
VERTEX
  8
0
 10
252.261
 20
93.2104
 30
0.0
 40
0.5
 41
0.5
  0
VERTEX
  8
0
 10
251.781
 20
94.0742
 30
0.0
 40
0.5
 41
0.5
  0
VERTEX
  8
0
 10
252.355
 20
94.554
 30
0.0
 40
0.5
 41
0.5
  0
SEQEND
  8
0
  0
POLYLINE
8
0
 62
     0
 66
     1
 10
0
 20
0
 30
0.0
 70
     1
 40
0.5
 41
0.5
  0
VERTEX
  8
0
 10
257.829
 20
93.8479
 30
0.0
 40
0.5
 41
0.5
  0
VERTEX
  8
0
 10
258.302
 20
93.1692
 30
0.0
 40
0.5
 41
0.5
  0
VERTEX
  8
0
 10
257.564
 20
87.801
 30
0.0
 40
0.5
 41
0.5
  0
VERTEX
  8
0
 10
256.857
 20
87.1223
 30
0.0
 40
0.5
 41
0.5
  0
VERTEX
  8
0
 10
256.307
 20
87.7598
 30
0.0
 40
0.5
 41
0.5
  0
VERTEX
  8
0
 10
257.027
 20
93.231
 30
0.0
 40
0.5
 41
0.5
  0
VERTEX
  8
0
 10
257.829
 20
93.8479
 30
0.0
 40
0.5
 41
0.5
  0
SEQEND
  8
0
  0
POLYLINE
8
0
 62
     0
 66
     1
 10
0
 20
0
 30
0.0
 70
     1
 40
0.5
 41
0.5
  0
VERTEX
  8
0
 10
252.223
 20
93.2927
 30
0.0
 40
0.5
 41
0.5
  0
VERTEX
  8
0
 10
251.359
 20
87.7019
 30
0.0
 40
0.5
 41
0.5
  0
VERTEX
  8
0
 10
250.777
 20
87.3486
 30
0.0
 40
0.5
 41
0.5
  0
VERTEX
  8
0
 10
250.209
 20
87.9861
 30
0.0
 40
0.5
 41
0.5
  0
VERTEX
  8
0
 10
250.929
 20
93.3955
 30
0.0
 40
0.5
 41
0.5
  0
VERTEX
  8
0
 10
251.8
 20
94.0742
 30
0.0
 40
0.5
 41
0.5
  0
VERTEX
  8
0
 10
252.223
 20
93.2927
 30
0.0
 40
0.5
 41
0.5
  0
SEQEND
  8
0
  0
POLYLINE
8
0
 62
     0
 66
     1
 10
0
 20
0
 30
0.0
 70
     1
 40
0.5
 41
0.5
  0
VERTEX
  8
0
 10
251.402
 20
87.728
 30
0.0
 40
0.5
 41
0.5
  0
VERTEX
  8
0
 10
256.326
 20
87.728
 30
0.0
 40
0.5
 41
0.5
  0
VERTEX
  8
0
 10
256.857
 20
87.1223
 30
0.0
 40
0.5
 41
0.5
  0
VERTEX
  8
0
 10
256.232
 20
86.5657
 30
0.0
 40
0.5
 41
0.5
  0
VERTEX
  8
0
 10
251.289
 20
86.5657
 30
0.0
 40
0.5
 41
0.5
  0
VERTEX
  8
0
 10
250.796
 20
87.3896
 30
0.0
 40
0.5
 41
0.5
  0
VERTEX
  8
0
 10
251.402
 20
87.728
 30
0.0
 40
0.5
 41
0.5
  0
SEQEND
  8
0
  0
POLYLINE
8
0
 62
     0
 66
     1
 10
0
 20
0
 30
0.0
 70
     1
 40
0.5
 41
0.5
  0
VERTEX
  8
0
 10
256.838
 20
87.1428
 30
0.0
 40
0.5
 41
0.5
  0
VERTEX
  8
0
 10
257.355
 20
86.5806
 30
0.0
 40
0.5
 41
0.5
  0
VERTEX
  8
0
 10
256.667
 20
81.1301
 30
0.0
 40
0.5
 41
0.5
  0
VERTEX
  8
0
 10
255.929
 20
80.5955
 30
0.0
 40
0.5
 41
0.5
  0
VERTEX
  8
0
 10
255.417
 20
81.1782
 30
0.0
 40
0.5
 41
0.5
  0
VERTEX
  8
0
 10
256.137
 20
86.4985
 30
0.0
 40
0.5
 41
0.5
  0
VERTEX
  8
0
 10
256.838
 20
87.1428
 30
0.0
 40
0.5
 41
0.5
  0
SEQEND
  8
0
  0
POLYLINE
8
0
 62
     0
 66
     1
 10
0
 20
0
 30
0.0
 70
     1
 40
0.5
 41
0.5
  0
VERTEX
  8
0
 10
250.777
 20
87.3691
 30
0.0
 40
0.5
 41
0.5
  0
VERTEX
  8
0
 10
251.27
 20
86.7246
 30
0.0
 40
0.5
 41
0.5
  0
VERTEX
  8
0
 10
250.588
 20
81.3633
 30
0.0
 40
0.5
 41
0.5
  0
VERTEX
  8
0
 10
249.843
 20
80.8835
 30
0.0
 40
0.5
 41
0.5
  0
VERTEX
  8
0
 10
249.35
 20
81.3633
 30
0.0
 40
0.5
 41
0.5
  0
VERTEX
  8
0
 10
250.07
 20
86.6013
 30
0.0
 40
0.5
 41
0.5
  0
VERTEX
  8
0
 10
250.777
 20
87.3691
 30
0.0
 40
0.5
 41
0.5
  0
SEQEND
  8
0
  0
POLYLINE
8
0
 62
     0
 66
     1
 10
0
 20
0
 30
0.0
 70
     1
 40
0.5
 41
0.5
  0
VERTEX
  8
0
 10
250.35
 20
81.1465
 30
0.0
 40
0.5
 41
0.5
  0
VERTEX
  8
0
 10
255.398
 20
81.1465
 30
0.0
 40
0.5
 41
0.5
  0
VERTEX
  8
0
 10
255.644
 20
80.8787
 30
0.0
 40
0.5
 41
0.5
  0
VERTEX
  8
0
 10
255.891
 20
80.5955
 30
0.0
 40
0.5
 41
0.5
  0
VERTEX
  8
0
 10
255.461
 20
80.2588
 30
0.0
 40
0.5
 41
0.5
  0
VERTEX
  8
0
 10
255.032
 20
79.9373
 30
0.0
 40
0.5
 41
0.5
  0
VERTEX
  8
0
 10
250.607
 20
79.9373
 30
0.0
 40
0.5
 41
0.5
  0
VERTEX
  8
0
 10
249.805
 20
80.8835
 30
0.0
 40
0.5
 41
0.5
  0
VERTEX
  8
0
 10
250.35
 20
81.1465
 30
0.0
 40
0.5
 41
0.5
  0
SEQEND
  8
0
  0
POLYLINE
8
0
 62
     0
 66
     1
 10
0
 20
0
 30
0.0
 70
     1
 40
0.5
 41
0.5
  0
VERTEX
  8
0
 10
257.886
 20
80.7634
 30
0.0
 40
0.5
 41
0.5
  0
VERTEX
  8
0
 10
258.097
 20
81.3186
 30
0.0
 40
0.5
 41
0.5
  0
VERTEX
  8
0
 10
258.609
 20
81.5483
 30
0.0
 40
0.5
 41
0.5
  0
VERTEX
  8
0
 10
259.12
 20
81.3186
 30
0.0
 40
0.5
 41
0.5
  0
VERTEX
  8
0
 10
259.331
 20
80.7634
 30
0.0
 40
0.5
 41
0.5
  0
VERTEX
  8
0
 10
259.12
 20
80.2083
 30
0.0
 40
0.5
 41
0.5
  0
VERTEX
  8
0
 10
258.609
 20
79.9783
 30
0.0
 40
0.5
 41
0.5
  0
VERTEX
  8
0
 10
258.097
 20
80.2083
 30
0.0
 40
0.5
 41
0.5
  0
VERTEX
  8
0
 10
257.886
 20
80.7634
 30
0.0
 40
0.5
 41
0.5
  0
SEQEND
  8
0
  0
POLYLINE
8
0
 62
     0
 66
     1
 10
0
 20
0
 30
0.0
 70
     1
 40
0.5
 41
0.5
  0
VERTEX
  8
0
 10
176.198
 20
82.8701
 30
0.0
 40
0.5
 41
0.5
  0
VERTEX
  8
0
 10
176.532
 20
84.5251
 30
0.0
 40
0.5
 41
0.5
  0
VERTEX
  8
0
 10
177.443
 20
85.8767
 30
0.0
 40
0.5
 41
0.5
  0
VERTEX
  8
0
 10
178.795
 20
86.7878
 30
0.0
 40
0.5
 41
0.5
  0
VERTEX
  8
0
 10
180.45
 20
87.1218
 30
0.0
 40
0.5
 41
0.5
  0
VERTEX
  8
0
 10
182.105
 20
86.7878
 30
0.0
 40
0.5
 41
0.5
  0
VERTEX
  8
0
 10
183.456
 20
85.8767
 30
0.0
 40
0.5
 41
0.5
  0
VERTEX
  8
0
 10
184.367
 20
84.5251
 30
0.0
 40
0.5
 41
0.5
  0
VERTEX
  8
0
 10
184.702
 20
82.8701
 30
0.0
 40
0.5
 41
0.5
  0
VERTEX
  8
0
 10
184.367
 20
81.2153
 30
0.0
 40
0.5
 41
0.5
  0
VERTEX
  8
0
 10
183.456
 20
79.8638
 30
0.0
 40
0.5
 41
0.5
  0
VERTEX
  8
0
 10
182.105
 20
78.9526
 30
0.0
 40
0.5
 41
0.5
  0
VERTEX
  8
0
 10
180.45
 20
78.6184
 30
0.0
 40
0.5
 41
0.5
  0
VERTEX
  8
0
 10
178.795
 20
78.9526
 30
0.0
 40
0.5
 41
0.5
  0
VERTEX
  8
0
 10
177.443
 20
79.8638
 30
0.0
 40
0.5
 41
0.5
  0
VERTEX
  8
0
 10
176.532
 20
81.2153
 30
0.0
 40
0.5
 41
0.5
  0
VERTEX
  8
0
 10
176.198
 20
82.8701
 30
0.0
 40
0.5
 41
0.5
  0
SEQEND
  8
0
  0
POLYLINE
8
0
 62
     0
 66
     1
 10
0
 20
0
 30
0.0
 70
     1
 40
0.5
 41
0.5
  0
VERTEX
  8
0
 10
180.131
 20
78.6201
 30
0.0
 40
0.5
 41
0.5
  0
VERTEX
  8
0
 10
180.131
 20
87.1201
 30
0.0
 40
0.5
 41
0.5
  0
VERTEX
  8
0
 10
180.943
 20
87.1201
 30
0.0
 40
0.5
 41
0.5
  0
VERTEX
  8
0
 10
180.943
 20
78.6201
 30
0.0
 40
0.5
 41
0.5
  0
VERTEX
  8
0
 10
180.131
 20
78.6201
 30
0.0
 40
0.5
 41
0.5
  0
SEQEND
  8
0
  0
ENDSEC
  0
EOF
