  0
SECTION
  2
HEADER
  9
$ACADVER
  1
AC1009
  9
$EXTMIN
 10
0.0
 20
0.0
 30
0.0
  9
$EXTMAX
 10
1000.0
 20
1000.0
 30
0.0
  9
$FILLMODE
 70
 0
  9
$SPLFRAME
 70
 1
  0
ENDSEC
  0
SECTION
  2
TABLES
  0
TABLE
  2
LAYER
 70
   255
  0
LAYER
  2
0
 70
     0
 62
     7
  6
CONTINUOUS
  0
ENDTAB
  0
ENDSEC
  0
SECTION
  2
ENTITIES
  0
POLYLINE
8
0
 62
     0
 66
     1
 10
0
 20
0
 30
0.0
 70
     1
 40
0.5
 41
0.5
  0
VERTEX
  8
0
 10
62.4548
 20
124.726
 30
0.0
 40
0.5
 41
0.5
  0
VERTEX
  8
0
 10
63.8721
 20
124.726
 30
0.0
 40
0.5
 41
0.5
  0
VERTEX
  8
0
 10
63.8721
 20
62.3635
 30
0.0
 40
0.5
 41
0.5
  0
VERTEX
  8
0
 10
62.4548
 20
62.3635
 30
0.0
 40
0.5
 41
0.5
  0
VERTEX
  8
0
 10
62.4548
 20
124.726
 30
0.0
 40
0.5
 41
0.5
  0
SEQEND
  8
0
  0
POLYLINE
8
0
 62
     0
 66
     1
 10
0
 20
0
 30
0.0
 70
     1
 40
0.5
 41
0.5
  0
VERTEX
  8
0
 10
365.762
 20
124.728
 30
0.0
 40
0.5
 41
0.5
  0
VERTEX
  8
0
 10
367.179
 20
124.728
 30
0.0
 40
0.5
 41
0.5
  0
VERTEX
  8
0
 10
367.179
 20
62.3657
 30
0.0
 40
0.5
 41
0.5
  0
VERTEX
  8
0
 10
365.762
 20
62.3657
 30
0.0
 40
0.5
 41
0.5
  0
VERTEX
  8
0
 10
365.762
 20
124.728
 30
0.0
 40
0.5
 41
0.5
  0
SEQEND
  8
0
  0
POLYLINE
8
0
 62
     0
 66
     1
 10
0
 20
0
 30
0.0
 70
     1
 40
0.5
 41
0.5
  0
VERTEX
  8
0
 10
68.8303
 20
111.971
 30
0.0
 40
0.5
 41
0.5
  0
VERTEX
  8
0
 10
69.1643
 20
113.626
 30
0.0
 40
0.5
 41
0.5
  0
VERTEX
  8
0
 10
70.0757
 20
114.978
 30
0.0
 40
0.5
 41
0.5
  0
VERTEX
  8
0
 10
71.4272
 20
115.889
 30
0.0
 40
0.5
 41
0.5
  0
VERTEX
  8
0
 10
73.0823
 20
116.223
 30
0.0
 40
0.5
 41
0.5
  0
VERTEX
  8
0
 10
74.7373
 20
115.889
 30
0.0
 40
0.5
 41
0.5
  0
VERTEX
  8
0
 10
76.0889
 20
114.978
 30
0.0
 40
0.5
 41
0.5
  0
VERTEX
  8
0
 10
77
 20
113.626
 30
0.0
 40
0.5
 41
0.5
  0
VERTEX
  8
0
 10
77.3342
 20
111.971
 30
0.0
 40
0.5
 41
0.5
  0
VERTEX
  8
0
 10
77
 20
110.316
 30
0.0
 40
0.5
 41
0.5
  0
VERTEX
  8
0
 10
76.0889
 20
108.965
 30
0.0
 40
0.5
 41
0.5
  0
VERTEX
  8
0
 10
74.7373
 20
108.053
 30
0.0
 40
0.5
 41
0.5
  0
VERTEX
  8
0
 10
73.0823
 20
107.719
 30
0.0
 40
0.5
 41
0.5
  0
VERTEX
  8
0
 10
71.4272
 20
108.053
 30
0.0
 40
0.5
 41
0.5
  0
VERTEX
  8
0
 10
70.0757
 20
108.965
 30
0.0
 40
0.5
 41
0.5
  0
VERTEX
  8
0
 10
69.1643
 20
110.316
 30
0.0
 40
0.5
 41
0.5
  0
VERTEX
  8
0
 10
68.8303
 20
111.971
 30
0.0
 40
0.5
 41
0.5
  0
SEQEND
  8
0
  0
POLYLINE
8
0
 62
     0
 66
     1
 10
0
 20
0
 30
0.0
 70
     1
 40
0.5
 41
0.5
  0
VERTEX
  8
0
 10
68.8303
 20
75.1208
 30
0.0
 40
0.5
 41
0.5
  0
VERTEX
  8
0
 10
69.1643
 20
76.7759
 30
0.0
 40
0.5
 41
0.5
  0
VERTEX
  8
0
 10
70.0757
 20
78.1274
 30
0.0
 40
0.5
 41
0.5
  0
VERTEX
  8
0
 10
71.4272
 20
79.0388
 30
0.0
 40
0.5
 41
0.5
  0
VERTEX
  8
0
 10
73.0823
 20
79.3728
 30
0.0
 40
0.5
 41
0.5
  0
VERTEX
  8
0
 10
74.7373
 20
79.0388
 30
0.0
 40
0.5
 41
0.5
  0
VERTEX
  8
0
 10
76.0889
 20
78.1274
 30
0.0
 40
0.5
 41
0.5
  0
VERTEX
  8
0
 10
77
 20
76.7759
 30
0.0
 40
0.5
 41
0.5
  0
VERTEX
  8
0
 10
77.3342
 20
75.1208
 30
0.0
 40
0.5
 41
0.5
  0
VERTEX
  8
0
 10
77
 20
73.4658
 30
0.0
 40
0.5
 41
0.5
  0
VERTEX
  8
0
 10
76.0889
 20
72.1143
 30
0.0
 40
0.5
 41
0.5
  0
VERTEX
  8
0
 10
74.7373
 20
71.2031
 30
0.0
 40
0.5
 41
0.5
  0
VERTEX
  8
0
 10
73.0823
 20
70.8689
 30
0.0
 40
0.5
 41
0.5
  0
VERTEX
  8
0
 10
71.4272
 20
71.2031
 30
0.0
 40
0.5
 41
0.5
  0
VERTEX
  8
0
 10
70.0757
 20
72.1143
 30
0.0
 40
0.5
 41
0.5
  0
VERTEX
  8
0
 10
69.1643
 20
73.4658
 30
0.0
 40
0.5
 41
0.5
  0
VERTEX
  8
0
 10
68.8303
 20
75.1208
 30
0.0
 40
0.5
 41
0.5
  0
SEQEND
  8
0
  0
POLYLINE
8
0
 62
     0
 66
     1
 10
0
 20
0
 30
0.0
 70
     1
 40
0.5
 41
0.5
  0
VERTEX
  8
0
 10
352.295
 20
111.971
 30
0.0
 40
0.5
 41
0.5
  0
VERTEX
  8
0
 10
352.629
 20
113.626
 30
0.0
 40
0.5
 41
0.5
  0
VERTEX
  8
0
 10
353.54
 20
114.978
 30
0.0
 40
0.5
 41
0.5
  0
VERTEX
  8
0
 10
354.892
 20
115.889
 30
0.0
 40
0.5
 41
0.5
  0
VERTEX
  8
0
 10
356.547
 20
116.223
 30
0.0
 40
0.5
 41
0.5
  0
VERTEX
  8
0
 10
358.202
 20
115.889
 30
0.0
 40
0.5
 41
0.5
  0
VERTEX
  8
0
 10
359.553
 20
114.978
 30
0.0
 40
0.5
 41
0.5
  0
VERTEX
  8
0
 10
360.465
 20
113.626
 30
0.0
 40
0.5
 41
0.5
  0
VERTEX
  8
0
 10
360.799
 20
111.971
 30
0.0
 40
0.5
 41
0.5
  0
VERTEX
  8
0
 10
360.465
 20
110.316
 30
0.0
 40
0.5
 41
0.5
  0
VERTEX
  8
0
 10
359.553
 20
108.965
 30
0.0
 40
0.5
 41
0.5
  0
VERTEX
  8
0
 10
358.202
 20
108.053
 30
0.0
 40
0.5
 41
0.5
  0
VERTEX
  8
0
 10
356.547
 20
107.719
 30
0.0
 40
0.5
 41
0.5
  0
VERTEX
  8
0
 10
354.892
 20
108.053
 30
0.0
 40
0.5
 41
0.5
  0
VERTEX
  8
0
 10
353.54
 20
108.965
 30
0.0
 40
0.5
 41
0.5
  0
VERTEX
  8
0
 10
352.629
 20
110.316
 30
0.0
 40
0.5
 41
0.5
  0
VERTEX
  8
0
 10
352.295
 20
111.971
 30
0.0
 40
0.5
 41
0.5
  0
SEQEND
  8
0
  0
POLYLINE
8
0
 62
     0
 66
     1
 10
0
 20
0
 30
0.0
 70
     1
 40
0.5
 41
0.5
  0
VERTEX
  8
0
 10
352.295
 20
75.1208
 30
0.0
 40
0.5
 41
0.5
  0
VERTEX
  8
0
 10
352.629
 20
76.7759
 30
0.0
 40
0.5
 41
0.5
  0
VERTEX
  8
0
 10
353.54
 20
78.1274
 30
0.0
 40
0.5
 41
0.5
  0
VERTEX
  8
0
 10
354.892
 20
79.0388
 30
0.0
 40
0.5
 41
0.5
  0
VERTEX
  8
0
 10
356.547
 20
79.3728
 30
0.0
 40
0.5
 41
0.5
  0
VERTEX
  8
0
 10
358.202
 20
79.0388
 30
0.0
 40
0.5
 41
0.5
  0
VERTEX
  8
0
 10
359.553
 20
78.1274
 30
0.0
 40
0.5
 41
0.5
  0
VERTEX
  8
0
 10
360.465
 20
76.7759
 30
0.0
 40
0.5
 41
0.5
  0
VERTEX
  8
0
 10
360.799
 20
75.1208
 30
0.0
 40
0.5
 41
0.5
  0
VERTEX
  8
0
 10
360.465
 20
73.4658
 30
0.0
 40
0.5
 41
0.5
  0
VERTEX
  8
0
 10
359.553
 20
72.1143
 30
0.0
 40
0.5
 41
0.5
  0
VERTEX
  8
0
 10
358.202
 20
71.2031
 30
0.0
 40
0.5
 41
0.5
  0
VERTEX
  8
0
 10
356.547
 20
70.8689
 30
0.0
 40
0.5
 41
0.5
  0
VERTEX
  8
0
 10
354.892
 20
71.2031
 30
0.0
 40
0.5
 41
0.5
  0
VERTEX
  8
0
 10
353.54
 20
72.1143
 30
0.0
 40
0.5
 41
0.5
  0
VERTEX
  8
0
 10
352.629
 20
73.4658
 30
0.0
 40
0.5
 41
0.5
  0
VERTEX
  8
0
 10
352.295
 20
75.1208
 30
0.0
 40
0.5
 41
0.5
  0
SEQEND
  8
0
  0
POLYLINE
8
0
 62
     0
 66
     1
 10
0
 20
0
 30
0.0
 70
     1
 40
0.5
 41
0.5
  0
VERTEX
  8
0
 10
113.334
 20
74.4121
 30
0.0
 40
0.5
 41
0.5
  0
VERTEX
  8
0
 10
113.999
 20
76.0156
 30
0.0
 40
0.5
 41
0.5
  0
VERTEX
  8
0
 10
115.602
 20
76.6797
 30
0.0
 40
0.5
 41
0.5
  0
VERTEX
  8
0
 10
117.206
 20
76.0156
 30
0.0
 40
0.5
 41
0.5
  0
VERTEX
  8
0
 10
117.87
 20
74.4121
 30
0.0
 40
0.5
 41
0.5
  0
VERTEX
  8
0
 10
117.206
 20
72.8086
 30
0.0
 40
0.5
 41
0.5
  0
VERTEX
  8
0
 10
115.602
 20
72.1443
 30
0.0
 40
0.5
 41
0.5
  0
VERTEX
  8
0
 10
113.999
 20
72.8086
 30
0.0
 40
0.5
 41
0.5
  0
VERTEX
  8
0
 10
113.334
 20
74.4121
 30
0.0
 40
0.5
 41
0.5
  0
SEQEND
  8
0
  0
POLYLINE
8
0
 62
     0
 66
     1
 10
0
 20
0
 30
0.0
 40
0.5
 41
0.5
  0
VERTEX
  8
0
 10
0.509521
 20
62.4082
 30
0.0
 40
0.5
 41
0.5
  0
VERTEX
  8
0
 10
26.9004
 20
62.4082
 30
0.0
 40
0.5
 41
0.5
  0
SEQEND
  8
0
  0
POLYLINE
8
0
 62
     0
 66
     1
 10
0
 20
0
 30
0.0
 40
0.5
 41
0.5
  0
VERTEX
  8
0
 10
0.509521
 20
124.771
 30
0.0
 40
0.5
 41
0.5
  0
VERTEX
  8
0
 10
26.9004
 20
124.771
 30
0.0
 40
0.5
 41
0.5
  0
SEQEND
  8
0
  0
POLYLINE
8
0
 62
     0
 66
     1
 10
0
 20
0
 30
0.0
 40
0.5
 41
0.5
  0
VERTEX
  8
0
 10
8.80249
 20
64.5527
 30
0.0
 40
0.5
 41
0.5
  0
VERTEX
  8
0
 10
8.80249
 20
122.668
 30
0.0
 40
0.5
 41
0.5
  0
SEQEND
  8
0
  0
POLYLINE
8
0
 62
     0
 66
     1
 10
0
 20
0
 30
0.0
 70
     1
 40
0.5
 41
0.5
  0
VERTEX
  8
0
 10
2.84424
 20
97.8528
 30
0.0
 40
0.5
 41
0.5
  0
VERTEX
  8
0
 10
2.84424
 20
96.8684
 30
0.0
 40
0.5
 41
0.5
  0
VERTEX
  8
0
 10
2.28174
 20
96.8684
 30
0.0
 40
0.5
 41
0.5
  0
VERTEX
  8
0
 10
2.28174
 20
97.8528
 30
0.0
 40
0.5
 41
0.5
  0
VERTEX
  8
0
 10
0.453613
 20
97.8528
 30
0.0
 40
0.5
 41
0.5
  0
VERTEX
  8
0
 10
0.453613
 20
98.4153
 30
0.0
 40
0.5
 41
0.5
  0
VERTEX
  8
0
 10
2.28174
 20
98.4153
 30
0.0
 40
0.5
 41
0.5
  0
VERTEX
  8
0
 10
2.28174
 20
101.017
 30
0.0
 40
0.5
 41
0.5
  0
VERTEX
  8
0
 10
2.84424
 20
101.017
 30
0.0
 40
0.5
 41
0.5
  0
VERTEX
  8
0
 10
7.30908
 20
98.4153
 30
0.0
 40
0.5
 41
0.5
  0
VERTEX
  8
0
 10
7.30908
 20
97.8528
 30
0.0
 40
0.5
 41
0.5
  0
VERTEX
  8
0
 10
2.84424
 20
97.8528
 30
0.0
 40
0.5
 41
0.5
  0
SEQEND
  8
0
  0
POLYLINE
8
0
 62
     0
 66
     1
 10
0
 20
0
 30
0.0
 70
     1
 40
0.5
 41
0.5
  0
VERTEX
  8
0
 10
2.84424
 20
98.4153
 30
0.0
 40
0.5
 41
0.5
  0
VERTEX
  8
0
 10
6.18408
 20
98.4153
 30
0.0
 40
0.5
 41
0.5
  0
VERTEX
  8
0
 10
2.84424
 20
100.384
 30
0.0
 40
0.5
 41
0.5
  0
VERTEX
  8
0
 10
2.84424
 20
98.4153
 30
0.0
 40
0.5
 41
0.5
  0
SEQEND
  8
0
  0
POLYLINE
8
0
 62
     0
 66
     1
 10
0
 20
0
 30
0.0
 70
     1
 40
0.5
 41
0.5
  0
VERTEX
  8
0
 10
2.84424
 20
92.6147
 30
0.0
 40
0.5
 41
0.5
  0
VERTEX
  8
0
 10
2.84424
 20
91.6304
 30
0.0
 40
0.5
 41
0.5
  0
VERTEX
  8
0
 10
2.28174
 20
91.6304
 30
0.0
 40
0.5
 41
0.5
  0
VERTEX
  8
0
 10
2.28174
 20
92.6147
 30
0.0
 40
0.5
 41
0.5
  0
VERTEX
  8
0
 10
0.453613
 20
92.6147
 30
0.0
 40
0.5
 41
0.5
  0
VERTEX
  8
0
 10
0.453613
 20
93.1772
 30
0.0
 40
0.5
 41
0.5
  0
VERTEX
  8
0
 10
2.28174
 20
93.1772
 30
0.0
 40
0.5
 41
0.5
  0
VERTEX
  8
0
 10
2.28174
 20
95.7788
 30
0.0
 40
0.5
 41
0.5
  0
VERTEX
  8
0
 10
2.84424
 20
95.7788
 30
0.0
 40
0.5
 41
0.5
  0
VERTEX
  8
0
 10
7.30908
 20
93.1772
 30
0.0
 40
0.5
 41
0.5
  0
VERTEX
  8
0
 10
7.30908
 20
92.6147
 30
0.0
 40
0.5
 41
0.5
  0
VERTEX
  8
0
 10
2.84424
 20
92.6147
 30
0.0
 40
0.5
 41
0.5
  0
SEQEND
  8
0
  0
POLYLINE
8
0
 62
     0
 66
     1
 10
0
 20
0
 30
0.0
 70
     1
 40
0.5
 41
0.5
  0
VERTEX
  8
0
 10
2.84424
 20
93.1772
 30
0.0
 40
0.5
 41
0.5
  0
VERTEX
  8
0
 10
6.18408
 20
93.1772
 30
0.0
 40
0.5
 41
0.5
  0
VERTEX
  8
0
 10
2.84424
 20
95.146
 30
0.0
 40
0.5
 41
0.5
  0
VERTEX
  8
0
 10
2.84424
 20
93.1772
 30
0.0
 40
0.5
 41
0.5
  0
SEQEND
  8
0
  0
POLYLINE
8
0
 62
     0
 66
     1
 10
0
 20
0
 30
0.0
 70
     1
 40
0.5
 41
0.5
  0
VERTEX
  8
0
 10
1.19189
 20
89.8379
 30
0.0
 40
0.5
 41
0.5
  0
VERTEX
  8
0
 10
0.453613
 20
89.8379
 30
0.0
 40
0.5
 41
0.5
  0
VERTEX
  8
0
 10
0.453613
 20
90.541
 30
0.0
 40
0.5
 41
0.5
  0
VERTEX
  8
0
 10
1.19189
 20
90.541
 30
0.0
 40
0.5
 41
0.5
  0
VERTEX
  8
0
 10
1.19189
 20
89.8379
 30
0.0
 40
0.5
 41
0.5
  0
SEQEND
  8
0
  0
POLYLINE
8
0
 62
     0
 66
     1
 10
0
 20
0
 30
0.0
 70
     1
 40
0.5
 41
0.5
  0
VERTEX
  8
0
 10
6.74658
 20
86.6667
 30
0.0
 40
0.5
 41
0.5
  0
VERTEX
  8
0
 10
6.35986
 20
87.5457
 30
0.0
 40
0.5
 41
0.5
  0
VERTEX
  8
0
 10
3.86377
 20
88.1082
 30
0.0
 40
0.5
 41
0.5
  0
VERTEX
  8
0
 10
1.40283
 20
87.5457
 30
0.0
 40
0.5
 41
0.5
  0
VERTEX
  8
0
 10
1.01611
 20
86.6667
 30
0.0
 40
0.5
 41
0.5
  0
VERTEX
  8
0
 10
1.40283
 20
85.7878
 30
0.0
 40
0.5
 41
0.5
  0
VERTEX
  8
0
 10
3.86377
 20
85.2253
 30
0.0
 40
0.5
 41
0.5
  0
VERTEX
  8
0
 10
6.35986
 20
85.7878
 30
0.0
 40
0.5
 41
0.5
  0
VERTEX
  8
0
 10
6.74658
 20
86.6667
 30
0.0
 40
0.5
 41
0.5
  0
SEQEND
  8
0
  0
POLYLINE
8
0
 62
     0
 66
     1
 10
0
 20
0
 30
0.0
 70
     1
 40
0.5
 41
0.5
  0
VERTEX
  8
0
 10
7.30908
 20
86.6667
 30
0.0
 40
0.5
 41
0.5
  0
VERTEX
  8
0
 10
6.78174
 20
85.4363
 30
0.0
 40
0.5
 41
0.5
  0
VERTEX
  8
0
 10
5.66553
 20
84.8562
 30
0.0
 40
0.5
 41
0.5
  0
VERTEX
  8
0
 10
3.86377
 20
84.6628
 30
0.0
 40
0.5
 41
0.5
  0
VERTEX
  8
0
 10
2.08838
 20
84.8562
 30
0.0
 40
0.5
 41
0.5
  0
VERTEX
  8
0
 10
0.980957
 20
85.4363
 30
0.0
 40
0.5
 41
0.5
  0
VERTEX
  8
0
 10
0.453613
 20
86.6667
 30
0.0
 40
0.5
 41
0.5
  0
VERTEX
  8
0
 10
0.980957
 20
87.8975
 30
0.0
 40
0.5
 41
0.5
  0
VERTEX
  8
0
 10
2.08838
 20
88.4775
 30
0.0
 40
0.5
 41
0.5
  0
VERTEX
  8
0
 10
3.86377
 20
88.6707
 30
0.0
 40
0.5
 41
0.5
  0
VERTEX
  8
0
 10
5.66553
 20
88.4775
 30
0.0
 40
0.5
 41
0.5
  0
VERTEX
  8
0
 10
6.78174
 20
87.8975
 30
0.0
 40
0.5
 41
0.5
  0
VERTEX
  8
0
 10
7.30908
 20
86.6667
 30
0.0
 40
0.5
 41
0.5
  0
SEQEND
  8
0
  0
POLYLINE
8
0
 62
     0
 66
     1
 10
0
 20
0
 30
0.0
 40
0.5
 41
0.5
  0
VERTEX
  8
0
 10
27.0054
 20
4.35986
 30
0.0
 40
0.5
 41
0.5
  0
VERTEX
  8
0
 10
27.0054
 20
62.676
 30
0.0
 40
0.5
 41
0.5
  0
SEQEND
  8
0
  0
POLYLINE
8
0
 62
     0
 66
     1
 10
0
 20
0
 30
0.0
 40
0.5
 41
0.5
  0
VERTEX
  8
0
 10
707.293
 20
3.60986
 30
0.0
 40
0.5
 41
0.5
  0
VERTEX
  8
0
 10
707.293
 20
62.676
 30
0.0
 40
0.5
 41
0.5
  0
SEQEND
  8
0
  0
POLYLINE
8
0
 62
     0
 66
     1
 10
0
 20
0
 30
0.0
 40
0.5
 41
0.5
  0
VERTEX
  8
0
 10
705.228
 20
9.62402
 30
0.0
 40
0.5
 41
0.5
  0
VERTEX
  8
0
 10
29.0112
 20
9.62402
 30
0.0
 40
0.5
 41
0.5
  0
SEQEND
  8
0
  0
POLYLINE
8
0
 62
     0
 66
     1
 10
0
 20
0
 30
0.0
 70
     1
 40
0.5
 41
0.5
  0
VERTEX
  8
0
 10
335.605
 20
3.53735
 30
0.0
 40
0.5
 41
0.5
  0
VERTEX
  8
0
 10
336.589
 20
3.53735
 30
0.0
 40
0.5
 41
0.5
  0
VERTEX
  8
0
 10
336.589
 20
2.97485
 30
0.0
 40
0.5
 41
0.5
  0
VERTEX
  8
0
 10
335.605
 20
2.97485
 30
0.0
 40
0.5
 41
0.5
  0
VERTEX
  8
0
 10
335.605
 20
1.14673
 30
0.0
 40
0.5
 41
0.5
  0
VERTEX
  8
0
 10
335.042
 20
1.14673
 30
0.0
 40
0.5
 41
0.5
  0
VERTEX
  8
0
 10
335.042
 20
2.97485
 30
0.0
 40
0.5
 41
0.5
  0
VERTEX
  8
0
 10
332.441
 20
2.97485
 30
0.0
 40
0.5
 41
0.5
  0
VERTEX
  8
0
 10
332.441
 20
3.53735
 30
0.0
 40
0.5
 41
0.5
  0
VERTEX
  8
0
 10
335.042
 20
8.00244
 30
0.0
 40
0.5
 41
0.5
  0
VERTEX
  8
0
 10
335.605
 20
8.00244
 30
0.0
 40
0.5
 41
0.5
  0
VERTEX
  8
0
 10
335.605
 20
3.53735
 30
0.0
 40
0.5
 41
0.5
  0
SEQEND
  8
0
  0
POLYLINE
8
0
 62
     0
 66
     1
 10
0
 20
0
 30
0.0
 70
     1
 40
0.5
 41
0.5
  0
VERTEX
  8
0
 10
335.042
 20
3.53735
 30
0.0
 40
0.5
 41
0.5
  0
VERTEX
  8
0
 10
335.042
 20
6.87744
 30
0.0
 40
0.5
 41
0.5
  0
VERTEX
  8
0
 10
333.074
 20
3.53735
 30
0.0
 40
0.5
 41
0.5
  0
VERTEX
  8
0
 10
335.042
 20
3.53735
 30
0.0
 40
0.5
 41
0.5
  0
SEQEND
  8
0
  0
POLYLINE
8
0
 62
     0
 66
     1
 10
0
 20
0
 30
0.0
 70
     1
 40
0.5
 41
0.5
  0
VERTEX
  8
0
 10
339.753
 20
4.41626
 30
0.0
 40
0.5
 41
0.5
  0
VERTEX
  8
0
 10
338.804
 20
4.02954
 30
0.0
 40
0.5
 41
0.5
  0
VERTEX
  8
0
 10
338.382
 20
3.01025
 30
0.0
 40
0.5
 41
0.5
  0
VERTEX
  8
0
 10
338.698
 20
2.09595
 30
0.0
 40
0.5
 41
0.5
  0
VERTEX
  8
0
 10
339.753
 20
1.70923
 30
0.0
 40
0.5
 41
0.5
  0
VERTEX
  8
0
 10
340.808
 20
2.09595
 30
0.0
 40
0.5
 41
0.5
  0
VERTEX
  8
0
 10
341.124
 20
3.01025
 30
0.0
 40
0.5
 41
0.5
  0
VERTEX
  8
0
 10
340.702
 20
4.02954
 30
0.0
 40
0.5
 41
0.5
  0
VERTEX
  8
0
 10
339.753
 20
4.41626
 30
0.0
 40
0.5
 41
0.5
  0
SEQEND
  8
0
  0
POLYLINE
8
0
 62
     0
 66
     1
 10
0
 20
0
 30
0.0
 70
     1
 40
0.5
 41
0.5
  0
VERTEX
  8
0
 10
339.753
 20
8.00244
 30
0.0
 40
0.5
 41
0.5
  0
VERTEX
  8
0
 10
341.019
 20
7.51025
 30
0.0
 40
0.5
 41
0.5
  0
VERTEX
  8
0
 10
341.476
 20
6.24463
 30
0.0
 40
0.5
 41
0.5
  0
VERTEX
  8
0
 10
341.054
 20
5.08423
 30
0.0
 40
0.5
 41
0.5
  0
VERTEX
  8
0
 10
340.527
 20
4.69775
 30
0.0
 40
0.5
 41
0.5
  0
VERTEX
  8
0
 10
341.159
 20
4.27563
 30
0.0
 40
0.5
 41
0.5
  0
VERTEX
  8
0
 10
341.616
 20
3.01025
 30
0.0
 40
0.5
 41
0.5
  0
VERTEX
  8
0
 10
341.124
 20
1.67432
 30
0.0
 40
0.5
 41
0.5
  0
VERTEX
  8
0
 10
339.753
 20
1.14673
 30
0.0
 40
0.5
 41
0.5
  0
VERTEX
  8
0
 10
338.382
 20
1.67432
 30
0.0
 40
0.5
 41
0.5
  0
VERTEX
  8
0
 10
337.89
 20
2.97485
 30
0.0
 40
0.5
 41
0.5
  0
VERTEX
  8
0
 10
338.347
 20
4.27563
 30
0.0
 40
0.5
 41
0.5
  0
VERTEX
  8
0
 10
338.945
 20
4.69775
 30
0.0
 40
0.5
 41
0.5
  0
VERTEX
  8
0
 10
338.488
 20
5.04932
 30
0.0
 40
0.5
 41
0.5
  0
VERTEX
  8
0
 10
338.031
 20
6.27954
 30
0.0
 40
0.5
 41
0.5
  0
VERTEX
  8
0
 10
338.488
 20
7.51025
 30
0.0
 40
0.5
 41
0.5
  0
VERTEX
  8
0
 10
339.753
 20
8.00244
 30
0.0
 40
0.5
 41
0.5
  0
SEQEND
  8
0
  0
POLYLINE
8
0
 62
     0
 66
     1
 10
0
 20
0
 30
0.0
 70
     1
 40
0.5
 41
0.5
  0
VERTEX
  8
0
 10
339.753
 20
7.43994
 30
0.0
 40
0.5
 41
0.5
  0
VERTEX
  8
0
 10
338.874
 20
7.12354
 30
0.0
 40
0.5
 41
0.5
  0
VERTEX
  8
0
 10
338.523
 20
6.27954
 30
0.0
 40
0.5
 41
0.5
  0
VERTEX
  8
0
 10
338.874
 20
5.40063
 30
0.0
 40
0.5
 41
0.5
  0
VERTEX
  8
0
 10
339.753
 20
4.97876
 30
0.0
 40
0.5
 41
0.5
  0
VERTEX
  8
0
 10
340.667
 20
5.36572
 30
0.0
 40
0.5
 41
0.5
  0
VERTEX
  8
0
 10
340.948
 20
6.24463
 30
0.0
 40
0.5
 41
0.5
  0
VERTEX
  8
0
 10
340.632
 20
7.12354
 30
0.0
 40
0.5
 41
0.5
  0
VERTEX
  8
0
 10
339.753
 20
7.43994
 30
0.0
 40
0.5
 41
0.5
  0
SEQEND
  8
0
  0
POLYLINE
8
0
 62
     0
 66
     1
 10
0
 20
0
 30
0.0
 70
     1
 40
0.5
 41
0.5
  0
VERTEX
  8
0
 10
344.991
 20
7.43994
 30
0.0
 40
0.5
 41
0.5
  0
VERTEX
  8
0
 10
344.112
 20
7.05322
 30
0.0
 40
0.5
 41
0.5
  0
VERTEX
  8
0
 10
343.55
 20
4.55713
 30
0.0
 40
0.5
 41
0.5
  0
VERTEX
  8
0
 10
344.112
 20
2.09595
 30
0.0
 40
0.5
 41
0.5
  0
VERTEX
  8
0
 10
344.991
 20
1.70923
 30
0.0
 40
0.5
 41
0.5
  0
VERTEX
  8
0
 10
345.87
 20
2.09595
 30
0.0
 40
0.5
 41
0.5
  0
VERTEX
  8
0
 10
346.432
 20
4.55713
 30
0.0
 40
0.5
 41
0.5
  0
VERTEX
  8
0
 10
345.87
 20
7.05322
 30
0.0
 40
0.5
 41
0.5
  0
VERTEX
  8
0
 10
344.991
 20
7.43994
 30
0.0
 40
0.5
 41
0.5
  0
SEQEND
  8
0
  0
POLYLINE
8
0
 62
     0
 66
     1
 10
0
 20
0
 30
0.0
 70
     1
 40
0.5
 41
0.5
  0
VERTEX
  8
0
 10
344.991
 20
8.00244
 30
0.0
 40
0.5
 41
0.5
  0
VERTEX
  8
0
 10
346.221
 20
7.47485
 30
0.0
 40
0.5
 41
0.5
  0
VERTEX
  8
0
 10
346.802
 20
6.35889
 30
0.0
 40
0.5
 41
0.5
  0
VERTEX
  8
0
 10
346.995
 20
4.55713
 30
0.0
 40
0.5
 41
0.5
  0
VERTEX
  8
0
 10
346.802
 20
2.78174
 30
0.0
 40
0.5
 41
0.5
  0
VERTEX
  8
0
 10
346.221
 20
1.67432
 30
0.0
 40
0.5
 41
0.5
  0
VERTEX
  8
0
 10
344.991
 20
1.14673
 30
0.0
 40
0.5
 41
0.5
  0
VERTEX
  8
0
 10
343.76
 20
1.67432
 30
0.0
 40
0.5
 41
0.5
  0
VERTEX
  8
0
 10
343.18
 20
2.78174
 30
0.0
 40
0.5
 41
0.5
  0
VERTEX
  8
0
 10
342.987
 20
4.55713
 30
0.0
 40
0.5
 41
0.5
  0
VERTEX
  8
0
 10
343.18
 20
6.35889
 30
0.0
 40
0.5
 41
0.5
  0
VERTEX
  8
0
 10
343.76
 20
7.47485
 30
0.0
 40
0.5
 41
0.5
  0
VERTEX
  8
0
 10
344.991
 20
8.00244
 30
0.0
 40
0.5
 41
0.5
  0
SEQEND
  8
0
  0
POLYLINE
8
0
 62
     0
 66
     1
 10
0
 20
0
 30
0.0
 70
     1
 40
0.5
 41
0.5
  0
VERTEX
  8
0
 10
348.858
 20
1.88525
 30
0.0
 40
0.5
 41
0.5
  0
VERTEX
  8
0
 10
348.858
 20
1.14673
 30
0.0
 40
0.5
 41
0.5
  0
VERTEX
  8
0
 10
348.155
 20
1.14673
 30
0.0
 40
0.5
 41
0.5
  0
VERTEX
  8
0
 10
348.155
 20
1.88525
 30
0.0
 40
0.5
 41
0.5
  0
VERTEX
  8
0
 10
348.858
 20
1.88525
 30
0.0
 40
0.5
 41
0.5
  0
SEQEND
  8
0
  0
POLYLINE
8
0
 62
     0
 66
     1
 10
0
 20
0
 30
0.0
 70
     1
 40
0.5
 41
0.5
  0
VERTEX
  8
0
 10
352.029
 20
7.43994
 30
0.0
 40
0.5
 41
0.5
  0
VERTEX
  8
0
 10
351.15
 20
7.05322
 30
0.0
 40
0.5
 41
0.5
  0
VERTEX
  8
0
 10
350.587
 20
4.55713
 30
0.0
 40
0.5
 41
0.5
  0
VERTEX
  8
0
 10
351.15
 20
2.09595
 30
0.0
 40
0.5
 41
0.5
  0
VERTEX
  8
0
 10
352.029
 20
1.70923
 30
0.0
 40
0.5
 41
0.5
  0
VERTEX
  8
0
 10
352.908
 20
2.09595
 30
0.0
 40
0.5
 41
0.5
  0
VERTEX
  8
0
 10
353.47
 20
4.55713
 30
0.0
 40
0.5
 41
0.5
  0
VERTEX
  8
0
 10
352.908
 20
7.05322
 30
0.0
 40
0.5
 41
0.5
  0
VERTEX
  8
0
 10
352.029
 20
7.43994
 30
0.0
 40
0.5
 41
0.5
  0
SEQEND
  8
0
  0
POLYLINE
8
0
 62
     0
 66
     1
 10
0
 20
0
 30
0.0
 70
     1
 40
0.5
 41
0.5
  0
VERTEX
  8
0
 10
352.029
 20
8.00244
 30
0.0
 40
0.5
 41
0.5
  0
VERTEX
  8
0
 10
353.259
 20
7.47485
 30
0.0
 40
0.5
 41
0.5
  0
VERTEX
  8
0
 10
353.839
 20
6.35889
 30
0.0
 40
0.5
 41
0.5
  0
VERTEX
  8
0
 10
354.033
 20
4.55713
 30
0.0
 40
0.5
 41
0.5
  0
VERTEX
  8
0
 10
353.839
 20
2.78174
 30
0.0
 40
0.5
 41
0.5
  0
VERTEX
  8
0
 10
353.259
 20
1.67432
 30
0.0
 40
0.5
 41
0.5
  0
VERTEX
  8
0
 10
352.029
 20
1.14673
 30
0.0
 40
0.5
 41
0.5
  0
VERTEX
  8
0
 10
350.798
 20
1.67432
 30
0.0
 40
0.5
 41
0.5
  0
VERTEX
  8
0
 10
350.218
 20
2.78174
 30
0.0
 40
0.5
 41
0.5
  0
VERTEX
  8
0
 10
350.025
 20
4.55713
 30
0.0
 40
0.5
 41
0.5
  0
VERTEX
  8
0
 10
350.218
 20
6.35889
 30
0.0
 40
0.5
 41
0.5
  0
VERTEX
  8
0
 10
350.798
 20
7.47485
 30
0.0
 40
0.5
 41
0.5
  0
VERTEX
  8
0
 10
352.029
 20
8.00244
 30
0.0
 40
0.5
 41
0.5
  0
SEQEND
  8
0
  0
POLYLINE
8
0
 62
     0
 66
     1
 10
0
 20
0
 30
0.0
 40
0.5
 41
0.5
  0
VERTEX
  8
0
 10
367.135
 20
28.8235
 30
0.0
 40
0.5
 41
0.5
  0
VERTEX
  8
0
 10
367.135
 20
62.676
 30
0.0
 40
0.5
 41
0.5
  0
SEQEND
  8
0
  0
POLYLINE
8
0
 62
     0
 66
     1
 10
0
 20
0
 30
0.0
 40
0.5
 41
0.5
  0
VERTEX
  8
0
 10
365.103
 20
35.4116
 30
0.0
 40
0.5
 41
0.5
  0
VERTEX
  8
0
 10
64.4097
 20
35.4116
 30
0.0
 40
0.5
 41
0.5
  0
SEQEND
  8
0
  0
POLYLINE
8
0
 62
     0
 66
     1
 10
0
 20
0
 30
0.0
 70
     1
 40
0.5
 41
0.5
  0
VERTEX
  8
0
 10
207.191
 20
33.825
 30
0.0
 40
0.5
 41
0.5
  0
VERTEX
  8
0
 10
208.386
 20
33.3325
 30
0.0
 40
0.5
 41
0.5
  0
VERTEX
  8
0
 10
208.843
 20
31.9614
 30
0.0
 40
0.5
 41
0.5
  0
VERTEX
  8
0
 10
208.527
 20
30.731
 30
0.0
 40
0.5
 41
0.5
  0
VERTEX
  8
0
 10
207.332
 20
29.2896
 30
0.0
 40
0.5
 41
0.5
  0
VERTEX
  8
0
 10
205.82
 20
27.4966
 30
0.0
 40
0.5
 41
0.5
  0
VERTEX
  8
0
 10
208.843
 20
27.4966
 30
0.0
 40
0.5
 41
0.5
  0
VERTEX
  8
0
 10
208.843
 20
26.9341
 30
0.0
 40
0.5
 41
0.5
  0
VERTEX
  8
0
 10
205.187
 20
26.9341
 30
0.0
 40
0.5
 41
0.5
  0
VERTEX
  8
0
 10
205.187
 20
27.5671
 30
0.0
 40
0.5
 41
0.5
  0
VERTEX
  8
0
 10
206.91
 20
29.606
 30
0.0
 40
0.5
 41
0.5
  0
VERTEX
  8
0
 10
208.035
 20
30.9771
 30
0.0
 40
0.5
 41
0.5
  0
VERTEX
  8
0
 10
208.281
 20
31.9614
 30
0.0
 40
0.5
 41
0.5
  0
VERTEX
  8
0
 10
207.964
 20
32.946
 30
0.0
 40
0.5
 41
0.5
  0
VERTEX
  8
0
 10
207.191
 20
33.2625
 30
0.0
 40
0.5
 41
0.5
  0
VERTEX
  8
0
 10
206.382
 20
32.9106
 30
0.0
 40
0.5
 41
0.5
  0
VERTEX
  8
0
 10
205.89
 20
31.575
 30
0.0
 40
0.5
 41
0.5
  0
VERTEX
  8
0
 10
205.328
 20
31.575
 30
0.0
 40
0.5
 41
0.5
  0
VERTEX
  8
0
 10
205.96
 20
33.2625
 30
0.0
 40
0.5
 41
0.5
  0
VERTEX
  8
0
 10
207.191
 20
33.825
 30
0.0
 40
0.5
 41
0.5
  0
SEQEND
  8
0
  0
POLYLINE
8
0
 62
     0
 66
     1
 10
0
 20
0
 30
0.0
 70
     1
 40
0.5
 41
0.5
  0
VERTEX
  8
0
 10
212.71
 20
33.7896
 30
0.0
 40
0.5
 41
0.5
  0
VERTEX
  8
0
 10
212.71
 20
26.9341
 30
0.0
 40
0.5
 41
0.5
  0
VERTEX
  8
0
 10
212.148
 20
26.9341
 30
0.0
 40
0.5
 41
0.5
  0
VERTEX
  8
0
 10
212.148
 20
32.4185
 30
0.0
 40
0.5
 41
0.5
  0
VERTEX
  8
0
 10
210.952
 20
32.4185
 30
0.0
 40
0.5
 41
0.5
  0
VERTEX
  8
0
 10
210.952
 20
32.8052
 30
0.0
 40
0.5
 41
0.5
  0
VERTEX
  8
0
 10
212.148
 20
33.2271
 30
0.0
 40
0.5
 41
0.5
  0
VERTEX
  8
0
 10
212.429
 20
33.7896
 30
0.0
 40
0.5
 41
0.5
  0
VERTEX
  8
0
 10
212.71
 20
33.7896
 30
0.0
 40
0.5
 41
0.5
  0
SEQEND
  8
0
  0
POLYLINE
8
0
 62
     0
 66
     1
 10
0
 20
0
 30
0.0
 70
     1
 40
0.5
 41
0.5
  0
VERTEX
  8
0
 10
215.839
 20
29.9224
 30
0.0
 40
0.5
 41
0.5
  0
VERTEX
  8
0
 10
216.085
 20
33.7896
 30
0.0
 40
0.5
 41
0.5
  0
VERTEX
  8
0
 10
219.178
 20
33.7896
 30
0.0
 40
0.5
 41
0.5
  0
VERTEX
  8
0
 10
219.178
 20
33.2271
 30
0.0
 40
0.5
 41
0.5
  0
VERTEX
  8
0
 10
216.542
 20
33.2271
 30
0.0
 40
0.5
 41
0.5
  0
VERTEX
  8
0
 10
216.366
 20
30.8013
 30
0.0
 40
0.5
 41
0.5
  0
VERTEX
  8
0
 10
217.596
 20
31.3989
 30
0.0
 40
0.5
 41
0.5
  0
VERTEX
  8
0
 10
218.827
 20
30.9421
 30
0.0
 40
0.5
 41
0.5
  0
VERTEX
  8
0
 10
219.354
 20
29.2546
 30
0.0
 40
0.5
 41
0.5
  0
VERTEX
  8
0
 10
218.757
 20
27.3914
 30
0.0
 40
0.5
 41
0.5
  0
VERTEX
  8
0
 10
217.526
 20
26.9341
 30
0.0
 40
0.5
 41
0.5
  0
VERTEX
  8
0
 10
216.296
 20
27.4263
 30
0.0
 40
0.5
 41
0.5
  0
VERTEX
  8
0
 10
215.663
 20
28.7271
 30
0.0
 40
0.5
 41
0.5
  0
VERTEX
  8
0
 10
216.26
 20
28.7271
 30
0.0
 40
0.5
 41
0.5
  0
VERTEX
  8
0
 10
216.682
 20
27.8481
 30
0.0
 40
0.5
 41
0.5
  0
VERTEX
  8
0
 10
217.526
 20
27.4966
 30
0.0
 40
0.5
 41
0.5
  0
VERTEX
  8
0
 10
218.335
 20
27.8132
 30
0.0
 40
0.5
 41
0.5
  0
VERTEX
  8
0
 10
218.792
 20
29.2546
 30
0.0
 40
0.5
 41
0.5
  0
VERTEX
  8
0
 10
218.44
 20
30.52
 30
0.0
 40
0.5
 41
0.5
  0
VERTEX
  8
0
 10
217.596
 20
30.8364
 30
0.0
 40
0.5
 41
0.5
  0
VERTEX
  8
0
 10
216.682
 20
30.45
 30
0.0
 40
0.5
 41
0.5
  0
VERTEX
  8
0
 10
216.331
 20
29.9224
 30
0.0
 40
0.5
 41
0.5
  0
VERTEX
  8
0
 10
215.839
 20
29.9224
 30
0.0
 40
0.5
 41
0.5
  0
SEQEND
  8
0
  0
POLYLINE
8
0
 62
     0
 66
     1
 10
0
 20
0
 30
0.0
 70
     1
 40
0.5
 41
0.5
  0
VERTEX
  8
0
 10
221.358
 20
27.6724
 30
0.0
 40
0.5
 41
0.5
  0
VERTEX
  8
0
 10
221.358
 20
26.9341
 30
0.0
 40
0.5
 41
0.5
  0
VERTEX
  8
0
 10
220.655
 20
26.9341
 30
0.0
 40
0.5
 41
0.5
  0
VERTEX
  8
0
 10
220.655
 20
27.6724
 30
0.0
 40
0.5
 41
0.5
  0
VERTEX
  8
0
 10
221.358
 20
27.6724
 30
0.0
 40
0.5
 41
0.5
  0
SEQEND
  8
0
  0
POLYLINE
8
0
 62
     0
 66
     1
 10
0
 20
0
 30
0.0
 70
     1
 40
0.5
 41
0.5
  0
VERTEX
  8
0
 10
224.529
 20
33.2271
 30
0.0
 40
0.5
 41
0.5
  0
VERTEX
  8
0
 10
223.65
 20
32.8403
 30
0.0
 40
0.5
 41
0.5
  0
VERTEX
  8
0
 10
223.087
 20
30.3442
 30
0.0
 40
0.5
 41
0.5
  0
VERTEX
  8
0
 10
223.65
 20
27.8835
 30
0.0
 40
0.5
 41
0.5
  0
VERTEX
  8
0
 10
224.529
 20
27.4966
 30
0.0
 40
0.5
 41
0.5
  0
VERTEX
  8
0
 10
225.408
 20
27.8835
 30
0.0
 40
0.5
 41
0.5
  0
VERTEX
  8
0
 10
225.97
 20
30.3442
 30
0.0
 40
0.5
 41
0.5
  0
VERTEX
  8
0
 10
225.408
 20
32.8403
 30
0.0
 40
0.5
 41
0.5
  0
VERTEX
  8
0
 10
224.529
 20
33.2271
 30
0.0
 40
0.5
 41
0.5
  0
SEQEND
  8
0
  0
POLYLINE
8
0
 62
     0
 66
     1
 10
0
 20
0
 30
0.0
 70
     1
 40
0.5
 41
0.5
  0
VERTEX
  8
0
 10
224.529
 20
33.7896
 30
0.0
 40
0.5
 41
0.5
  0
VERTEX
  8
0
 10
225.759
 20
33.2625
 30
0.0
 40
0.5
 41
0.5
  0
VERTEX
  8
0
 10
226.339
 20
32.1462
 30
0.0
 40
0.5
 41
0.5
  0
VERTEX
  8
0
 10
226.533
 20
30.3442
 30
0.0
 40
0.5
 41
0.5
  0
VERTEX
  8
0
 10
226.339
 20
28.5691
 30
0.0
 40
0.5
 41
0.5
  0
VERTEX
  8
0
 10
225.759
 20
27.4614
 30
0.0
 40
0.5
 41
0.5
  0
VERTEX
  8
0
 10
224.529
 20
26.9341
 30
0.0
 40
0.5
 41
0.5
  0
VERTEX
  8
0
 10
223.298
 20
27.4614
 30
0.0
 40
0.5
 41
0.5
  0
VERTEX
  8
0
 10
222.718
 20
28.5688
 30
0.0
 40
0.5
 41
0.5
  0
VERTEX
  8
0
 10
222.525
 20
30.3442
 30
0.0
 40
0.5
 41
0.5
  0
VERTEX
  8
0
 10
222.718
 20
32.1462
 30
0.0
 40
0.5
 41
0.5
  0
VERTEX
  8
0
 10
223.298
 20
33.2625
 30
0.0
 40
0.5
 41
0.5
  0
VERTEX
  8
0
 10
224.529
 20
33.7896
 30
0.0
 40
0.5
 41
0.5
  0
SEQEND
  8
0
  0
POLYLINE
8
0
 62
     0
 66
     1
 10
0
 20
0
 30
0.0
 40
0.5
 41
0.5
  0
VERTEX
  8
0
 10
62.4109
 20
28.8235
 30
0.0
 40
0.5
 41
0.5
  0
VERTEX
  8
0
 10
62.4109
 20
62.676
 30
0.0
 40
0.5
 41
0.5
  0
SEQEND
  8
0
  0
POLYLINE
8
0
 62
     0
 66
     1
 10
0
 20
0
 30
0.0
 70
     1
 40
0.5
 41
0.5
  0
VERTEX
  8
0
 10
63.8696
 20
124.727
 30
0.0
 40
0.5
 41
0.5
  0
VERTEX
  8
0
 10
365.76
 20
124.727
 30
0.0
 40
0.5
 41
0.5
  0
VERTEX
  8
0
 10
365.76
 20
62.3647
 30
0.0
 40
0.5
 41
0.5
  0
VERTEX
  8
0
 10
63.8696
 20
62.3647
 30
0.0
 40
0.5
 41
0.5
  0
VERTEX
  8
0
 10
63.8696
 20
124.727
 30
0.0
 40
0.5
 41
0.5
  0
SEQEND
  8
0
  0
POLYLINE
8
0
 62
     0
 66
     1
 10
0
 20
0
 30
0.0
 40
0.5
 41
0.5
  0
VERTEX
  8
0
 10
83.7124
 20
110.337
 30
0.0
 40
0.5
 41
0.5
  0
VERTEX
  8
0
 10
345.921
 20
110.337
 30
0.0
 40
0.5
 41
0.5
  0
SEQEND
  8
0
  0
POLYLINE
8
0
 62
     0
 66
     1
 10
0
 20
0
 30
0.0
 70
     1
 40
0.5
 41
0.5
  0
VERTEX
  8
0
 10
84.5374
 20
115.577
 30
0.0
 40
0.5
 41
0.5
  0
VERTEX
  8
0
 10
84.5374
 20
112.232
 30
0.0
 40
0.5
 41
0.5
  0
VERTEX
  8
0
 10
85.6824
 20
112.232
 30
0.0
 40
0.5
 41
0.5
  0
VERTEX
  8
0
 10
85.6824
 20
111.837
 30
0.0
 40
0.5
 41
0.5
  0
VERTEX
  8
0
 10
84.0674
 20
111.837
 30
0.0
 40
0.5
 41
0.5
  0
VERTEX
  8
0
 10
84.0674
 20
115.577
 30
0.0
 40
0.5
 41
0.5
  0
VERTEX
  8
0
 10
84.5374
 20
115.577
 30
0.0
 40
0.5
 41
0.5
  0
SEQEND
  8
0
  0
POLYLINE
8
0
 62
     0
 66
     1
 10
0
 20
0
 30
0.0
 70
     1
 40
0.5
 41
0.5
  0
VERTEX
  8
0
 10
86.5095
 20
114.162
 30
0.0
 40
0.5
 41
0.5
  0
VERTEX
  8
0
 10
86.5095
 20
111.837
 30
0.0
 40
0.5
 41
0.5
  0
VERTEX
  8
0
 10
86.0393
 20
111.837
 30
0.0
 40
0.5
 41
0.5
  0
VERTEX
  8
0
 10
86.0393
 20
114.162
 30
0.0
 40
0.5
 41
0.5
  0
VERTEX
  8
0
 10
86.5095
 20
114.162
 30
0.0
 40
0.5
 41
0.5
  0
SEQEND
  8
0
  0
POLYLINE
8
0
 62
     0
 66
     1
 10
0
 20
0
 30
0.0
 70
     1
 40
0.5
 41
0.5
  0
VERTEX
  8
0
 10
86.2744
 20
115.537
 30
0.0
 40
0.5
 41
0.5
  0
VERTEX
  8
0
 10
86.4893
 20
115.437
 30
0.0
 40
0.5
 41
0.5
  0
VERTEX
  8
0
 10
86.5593
 20
115.257
 30
0.0
 40
0.5
 41
0.5
  0
VERTEX
  8
0
 10
86.5593
 20
115.25
 30
0.0
 40
0.5
 41
0.5
  0
VERTEX
  8
0
 10
86.5593
 20
115.242
 30
0.0
 40
0.5
 41
0.5
  0
VERTEX
  8
0
 10
86.4768
 20
115.037
 30
0.0
 40
0.5
 41
0.5
  0
VERTEX
  8
0
 10
86.2744
 20
114.942
 30
0.0
 40
0.5
 41
0.5
  0
VERTEX
  8
0
 10
86.0544
 20
115.032
 30
0.0
 40
0.5
 41
0.5
  0
VERTEX
  8
0
 10
85.9795
 20
115.232
 30
0.0
 40
0.5
 41
0.5
  0
VERTEX
  8
0
 10
86.0493
 20
115.44
 30
0.0
 40
0.5
 41
0.5
  0
VERTEX
  8
0
 10
86.2744
 20
115.532
 30
0.0
 40
0.5
 41
0.5
  0
VERTEX
  8
0
 10
86.2744
 20
115.537
 30
0.0
 40
0.5
 41
0.5
  0
SEQEND
  8
0
  0
POLYLINE
8
0
 62
     0
 66
     1
 10
0
 20
0
 30
0.0
 70
     1
 40
0.5
 41
0.5
  0
VERTEX
  8
0
 10
87.6477
 20
114.162
 30
0.0
 40
0.5
 41
0.5
  0
VERTEX
  8
0
 10
87.6477
 20
113.847
 30
0.0
 40
0.5
 41
0.5
  0
VERTEX
  8
0
 10
87.7876
 20
113.98
 30
0.0
 40
0.5
 41
0.5
  0
VERTEX
  8
0
 10
87.9077
 20
114.082
 30
0.0
 40
0.5
 41
0.5
  0
VERTEX
  8
0
 10
88.105
 20
114.18
 30
0.0
 40
0.5
 41
0.5
  0
VERTEX
  8
0
 10
88.3926
 20
114.232
 30
0.0
 40
0.5
 41
0.5
  0
VERTEX
  8
0
 10
88.5027
 20
114.227
 30
0.0
 40
0.5
 41
0.5
  0
VERTEX
  8
0
 10
88.6177
 20
114.207
 30
0.0
 40
0.5
 41
0.5
  0
VERTEX
  8
0
 10
89.0327
 20
113.967
 30
0.0
 40
0.5
 41
0.5
  0
VERTEX
  8
0
 10
89.2227
 20
113.407
 30
0.0
 40
0.5
 41
0.5
  0
VERTEX
  8
0
 10
89.2227
 20
111.837
 30
0.0
 40
0.5
 41
0.5
  0
VERTEX
  8
0
 10
88.7476
 20
111.837
 30
0.0
 40
0.5
 41
0.5
  0
VERTEX
  8
0
 10
88.7476
 20
113.412
 30
0.0
 40
0.5
 41
0.5
  0
VERTEX
  8
0
 10
88.6177
 20
113.697
 30
0.0
 40
0.5
 41
0.5
  0
VERTEX
  8
0
 10
88.3276
 20
113.832
 30
0.0
 40
0.5
 41
0.5
  0
VERTEX
  8
0
 10
88.2827
 20
113.84
 30
0.0
 40
0.5
 41
0.5
  0
VERTEX
  8
0
 10
88.2375
 20
113.842
 30
0.0
 40
0.5
 41
0.5
  0
VERTEX
  8
0
 10
88.23
 20
113.842
 30
0.0
 40
0.5
 41
0.5
  0
VERTEX
  8
0
 10
88.2227
 20
113.842
 30
0.0
 40
0.5
 41
0.5
  0
VERTEX
  8
0
 10
87.8525
 20
113.677
 30
0.0
 40
0.5
 41
0.5
  0
VERTEX
  8
0
 10
87.6826
 20
113.172
 30
0.0
 40
0.5
 41
0.5
  0
VERTEX
  8
0
 10
87.6826
 20
111.837
 30
0.0
 40
0.5
 41
0.5
  0
VERTEX
  8
0
 10
87.2126
 20
111.837
 30
0.0
 40
0.5
 41
0.5
  0
VERTEX
  8
0
 10
87.2126
 20
114.162
 30
0.0
 40
0.5
 41
0.5
  0
VERTEX
  8
0
 10
87.6477
 20
114.162
 30
0.0
 40
0.5
 41
0.5
  0
SEQEND
  8
0
  0
POLYLINE
8
0
 62
     0
 66
     1
 10
0
 20
0
 30
0.0
 70
     1
 40
0.5
 41
0.5
  0
VERTEX
  8
0
 10
91.4653
 20
112.622
 30
0.0
 40
0.5
 41
0.5
  0
VERTEX
  8
0
 10
91.8555
 20
112.427
 30
0.0
 40
0.5
 41
0.5
  0
VERTEX
  8
0
 10
91.7979
 20
112.322
 30
0.0
 40
0.5
 41
0.5
  0
VERTEX
  8
0
 10
91.7305
 20
112.217
 30
0.0
 40
0.5
 41
0.5
  0
VERTEX
  8
0
 10
91.3855
 20
111.9
 30
0.0
 40
0.5
 41
0.5
  0
VERTEX
  8
0
 10
90.7554
 20
111.757
 30
0.0
 40
0.5
 41
0.5
  0
VERTEX
  8
0
 10
89.9878
 20
112.112
 30
0.0
 40
0.5
 41
0.5
  0
VERTEX
  8
0
 10
89.6555
 20
112.897
 30
0.0
 40
0.5
 41
0.5
  0
VERTEX
  8
0
 10
89.6528
 20
112.957
 30
0.0
 40
0.5
 41
0.5
  0
VERTEX
  8
0
 10
89.6504
 20
113.017
 30
0.0
 40
0.5
 41
0.5
  0
VERTEX
  8
0
 10
89.6504
 20
113.055
 30
0.0
 40
0.5
 41
0.5
  0
VERTEX
  8
0
 10
89.6504
 20
113.092
 30
0.0
 40
0.5
 41
0.5
  0
VERTEX
  8
0
 10
89.958
 20
113.94
 30
0.0
 40
0.5
 41
0.5
  0
VERTEX
  8
0
 10
90.7954
 20
114.312
 30
0.0
 40
0.5
 41
0.5
  0
VERTEX
  8
0
 10
91.5229
 20
114.04
 30
0.0
 40
0.5
 41
0.5
  0
VERTEX
  8
0
 10
91.8503
 20
113.442
 30
0.0
 40
0.5
 41
0.5
  0
VERTEX
  8
0
 10
91.8879
 20
113.24
 30
0.0
 40
0.5
 41
0.5
  0
VERTEX
  8
0
 10
91.9004
 20
113.047
 30
0.0
 40
0.5
 41
0.5
  0
VERTEX
  8
0
 10
91.9004
 20
112.987
 30
0.0
 40
0.5
 41
0.5
  0
VERTEX
  8
0
 10
91.8955
 20
112.932
 30
0.0
 40
0.5
 41
0.5
  0
VERTEX
  8
0
 10
90.1255
 20
112.937
 30
0.0
 40
0.5
 41
0.5
  0
VERTEX
  8
0
 10
90.333
 20
112.4
 30
0.0
 40
0.5
 41
0.5
  0
VERTEX
  8
0
 10
90.8354
 20
112.187
 30
0.0
 40
0.5
 41
0.5
  0
VERTEX
  8
0
 10
90.908
 20
112.192
 30
0.0
 40
0.5
 41
0.5
  0
VERTEX
  8
0
 10
90.9854
 20
112.207
 30
0.0
 40
0.5
 41
0.5
  0
VERTEX
  8
0
 10
91.2629
 20
112.347
 30
0.0
 40
0.5
 41
0.5
  0
VERTEX
  8
0
 10
91.4653
 20
112.617
 30
0.0
 40
0.5
 41
0.5
  0
VERTEX
  8
0
 10
91.4653
 20
112.622
 30
0.0
 40
0.5
 41
0.5
  0
SEQEND
  8
0
  0
POLYLINE
8
0
 62
     0
 66
     1
 10
0
 20
0
 30
0.0
 70
     1
 40
0.5
 41
0.5
  0
VERTEX
  8
0
 10
91.4253
 20
113.292
 30
0.0
 40
0.5
 41
0.5
  0
VERTEX
  8
0
 10
91.228
 20
113.735
 30
0.0
 40
0.5
 41
0.5
  0
VERTEX
  8
0
 10
90.7954
 20
113.917
 30
0.0
 40
0.5
 41
0.5
  0
VERTEX
  8
0
 10
90.6804
 20
113.905
 30
0.0
 40
0.5
 41
0.5
  0
VERTEX
  8
0
 10
90.5603
 20
113.867
 30
0.0
 40
0.5
 41
0.5
  0
VERTEX
  8
0
 10
90.2905
 20
113.675
 30
0.0
 40
0.5
 41
0.5
  0
VERTEX
  8
0
 10
90.1255
 20
113.287
 30
0.0
 40
0.5
 41
0.5
  0
VERTEX
  8
0
 10
91.4253
 20
113.292
 30
0.0
 40
0.5
 41
0.5
  0
SEQEND
  8
0
  0
POLYLINE
8
0
 62
     0
 66
     1
 10
0
 20
0
 30
0.0
 70
     1
 40
0.5
 41
0.5
  0
VERTEX
  8
0
 10
93.3167
 20
113.647
 30
0.0
 40
0.5
 41
0.5
  0
VERTEX
  8
0
 10
93.3167
 20
113.252
 30
0.0
 40
0.5
 41
0.5
  0
VERTEX
  8
0
 10
92.2117
 20
113.252
 30
0.0
 40
0.5
 41
0.5
  0
VERTEX
  8
0
 10
92.2117
 20
113.647
 30
0.0
 40
0.5
 41
0.5
  0
VERTEX
  8
0
 10
93.3167
 20
113.647
 30
0.0
 40
0.5
 41
0.5
  0
SEQEND
  8
0
  0
POLYLINE
8
0
 62
     0
 66
     1
 10
0
 20
0
 30
0.0
 70
     1
 40
0.5
 41
0.5
  0
VERTEX
  8
0
 10
95.6045
 20
112.467
 30
0.0
 40
0.5
 41
0.5
  0
VERTEX
  8
0
 10
95.6045
 20
111.877
 30
0.0
 40
0.5
 41
0.5
  0
VERTEX
  8
0
 10
95.312
 20
111.772
 30
0.0
 40
0.5
 41
0.5
  0
VERTEX
  8
0
 10
94.9946
 20
111.737
 30
0.0
 40
0.5
 41
0.5
  0
VERTEX
  8
0
 10
94.9546
 20
111.737
 30
0.0
 40
0.5
 41
0.5
  0
VERTEX
  8
0
 10
94.9146
 20
111.737
 30
0.0
 40
0.5
 41
0.5
  0
VERTEX
  8
0
 10
94.0896
 20
112.062
 30
0.0
 40
0.5
 41
0.5
  0
VERTEX
  8
0
 10
93.7146
 20
112.972
 30
0.0
 40
0.5
 41
0.5
  0
VERTEX
  8
0
 10
94.0972
 20
113.947
 30
0.0
 40
0.5
 41
0.5
  0
VERTEX
  8
0
 10
94.9646
 20
114.267
 30
0.0
 40
0.5
 41
0.5
  0
VERTEX
  8
0
 10
95.3096
 20
114.232
 30
0.0
 40
0.5
 41
0.5
  0
VERTEX
  8
0
 10
95.6396
 20
114.117
 30
0.0
 40
0.5
 41
0.5
  0
VERTEX
  8
0
 10
95.6396
 20
113.532
 30
0.0
 40
0.5
 41
0.5
  0
VERTEX
  8
0
 10
95.5122
 20
113.66
 30
0.0
 40
0.5
 41
0.5
  0
VERTEX
  8
0
 10
95.3796
 20
113.747
 30
0.0
 40
0.5
 41
0.5
  0
VERTEX
  8
0
 10
95.1172
 20
113.83
 30
0.0
 40
0.5
 41
0.5
  0
VERTEX
  8
0
 10
94.9346
 20
113.842
 30
0.0
 40
0.5
 41
0.5
  0
VERTEX
  8
0
 10
94.3621
 20
113.56
 30
0.0
 40
0.5
 41
0.5
  0
VERTEX
  8
0
 10
94.1646
 20
113.012
 30
0.0
 40
0.5
 41
0.5
  0
VERTEX
  8
0
 10
94.1646
 20
113.005
 30
0.0
 40
0.5
 41
0.5
  0
VERTEX
  8
0
 10
94.1646
 20
112.997
 30
0.0
 40
0.5
 41
0.5
  0
VERTEX
  8
0
 10
94.3521
 20
112.44
 30
0.0
 40
0.5
 41
0.5
  0
VERTEX
  8
0
 10
94.8997
 20
112.187
 30
0.0
 40
0.5
 41
0.5
  0
VERTEX
  8
0
 10
94.917
 20
112.187
 30
0.0
 40
0.5
 41
0.5
  0
VERTEX
  8
0
 10
94.9346
 20
112.187
 30
0.0
 40
0.5
 41
0.5
  0
VERTEX
  8
0
 10
95.1472
 20
112.21
 30
0.0
 40
0.5
 41
0.5
  0
VERTEX
  8
0
 10
95.4946
 20
112.372
 30
0.0
 40
0.5
 41
0.5
  0
VERTEX
  8
0
 10
95.552
 20
112.415
 30
0.0
 40
0.5
 41
0.5
  0
VERTEX
  8
0
 10
95.6045
 20
112.462
 30
0.0
 40
0.5
 41
0.5
  0
VERTEX
  8
0
 10
95.6045
 20
112.467
 30
0.0
 40
0.5
 41
0.5
  0
SEQEND
  8
0
  0
POLYLINE
8
0
 62
     0
 66
     1
 10
0
 20
0
 30
0.0
 70
     1
 40
0.5
 41
0.5
  0
VERTEX
  8
0
 10
95.9209
 20
113.057
 30
0.0
 40
0.5
 41
0.5
  0
VERTEX
  8
0
 10
95.9233
 20
113.145
 30
0.0
 40
0.5
 41
0.5
  0
VERTEX
  8
0
 10
95.9358
 20
113.242
 30
0.0
 40
0.5
 41
0.5
  0
VERTEX
  8
0
 10
96.2983
 20
113.922
 30
0.0
 40
0.5
 41
0.5
  0
VERTEX
  8
0
 10
97.1809
 20
114.232
 30
0.0
 40
0.5
 41
0.5
  0
VERTEX
  8
0
 10
97.3933
 20
114.217
 30
0.0
 40
0.5
 41
0.5
  0
VERTEX
  8
0
 10
97.6257
 20
114.167
 30
0.0
 40
0.5
 41
0.5
  0
VERTEX
  8
0
 10
98.1709
 20
113.837
 30
0.0
 40
0.5
 41
0.5
  0
VERTEX
  8
0
 10
98.4409
 20
113.132
 30
0.0
 40
0.5
 41
0.5
  0
VERTEX
  8
0
 10
98.4409
 20
113.117
 30
0.0
 40
0.5
 41
0.5
  0
VERTEX
  8
0
 10
98.4409
 20
113.102
 30
0.0
 40
0.5
 41
0.5
  0
VERTEX
  8
0
 10
98.4409
 20
113.085
 30
0.0
 40
0.5
 41
0.5
  0
VERTEX
  8
0
 10
98.4409
 20
113.067
 30
0.0
 40
0.5
 41
0.5
  0
VERTEX
  8
0
 10
98.4333
 20
112.942
 30
0.0
 40
0.5
 41
0.5
  0
VERTEX
  8
0
 10
98.4158
 20
112.817
 30
0.0
 40
0.5
 41
0.5
  0
VERTEX
  8
0
 10
98.0259
 20
112.115
 30
0.0
 40
0.5
 41
0.5
  0
VERTEX
  8
0
 10
97.1809
 20
111.797
 30
0.0
 40
0.5
 41
0.5
  0
VERTEX
  8
0
 10
96.3508
 20
112.032
 30
0.0
 40
0.5
 41
0.5
  0
VERTEX
  8
0
 10
95.9958
 20
112.552
 30
0.0
 40
0.5
 41
0.5
  0
VERTEX
  8
0
 10
95.9358
 20
112.817
 30
0.0
 40
0.5
 41
0.5
  0
VERTEX
  8
0
 10
95.9209
 20
113.052
 30
0.0
 40
0.5
 41
0.5
  0
VERTEX
  8
0
 10
95.9209
 20
113.057
 30
0.0
 40
0.5
 41
0.5
  0
SEQEND
  8
0
  0
POLYLINE
8
0
 62
     0
 66
     1
 10
0
 20
0
 30
0.0
 70
     1
 40
0.5
 41
0.5
  0
VERTEX
  8
0
 10
97.9658
 20
113.097
 30
0.0
 40
0.5
 41
0.5
  0
VERTEX
  8
0
 10
97.9458
 20
113.192
 30
0.0
 40
0.5
 41
0.5
  0
VERTEX
  8
0
 10
97.8457
 20
113.447
 30
0.0
 40
0.5
 41
0.5
  0
VERTEX
  8
0
 10
97.6084
 20
113.692
 30
0.0
 40
0.5
 41
0.5
  0
VERTEX
  8
0
 10
97.1809
 20
113.802
 30
0.0
 40
0.5
 41
0.5
  0
VERTEX
  8
0
 10
96.5632
 20
113.555
 30
0.0
 40
0.5
 41
0.5
  0
VERTEX
  8
0
 10
96.3909
 20
113.012
 30
0.0
 40
0.5
 41
0.5
  0
VERTEX
  8
0
 10
96.6084
 20
112.487
 30
0.0
 40
0.5
 41
0.5
  0
VERTEX
  8
0
 10
97.0259
 20
112.252
 30
0.0
 40
0.5
 41
0.5
  0
VERTEX
  8
0
 10
97.1208
 20
112.232
 30
0.0
 40
0.5
 41
0.5
  0
VERTEX
  8
0
 10
97.2158
 20
112.227
 30
0.0
 40
0.5
 41
0.5
  0
VERTEX
  8
0
 10
97.7283
 20
112.447
 30
0.0
 40
0.5
 41
0.5
  0
VERTEX
  8
0
 10
97.9658
 20
112.932
 30
0.0
 40
0.5
 41
0.5
  0
VERTEX
  8
0
 10
97.9683
 20
112.98
 30
0.0
 40
0.5
 41
0.5
  0
VERTEX
  8
0
 10
97.9707
 20
113.022
 30
0.0
 40
0.5
 41
0.5
  0
VERTEX
  8
0
 10
97.9707
 20
113.04
 30
0.0
 40
0.5
 41
0.5
  0
VERTEX
  8
0
 10
97.9707
 20
113.057
 30
0.0
 40
0.5
 41
0.5
  0
VERTEX
  8
0
 10
97.9658
 20
113.075
 30
0.0
 40
0.5
 41
0.5
  0
VERTEX
  8
0
 10
97.9658
 20
113.092
 30
0.0
 40
0.5
 41
0.5
  0
VERTEX
  8
0
 10
97.9658
 20
113.097
 30
0.0
 40
0.5
 41
0.5
  0
SEQEND
  8
0
  0
POLYLINE
8
0
 62
     0
 66
     1
 10
0
 20
0
 30
0.0
 70
     1
 40
0.5
 41
0.5
  0
VERTEX
  8
0
 10
99.2661
 20
114.162
 30
0.0
 40
0.5
 41
0.5
  0
VERTEX
  8
0
 10
99.2661
 20
113.847
 30
0.0
 40
0.5
 41
0.5
  0
VERTEX
  8
0
 10
99.406
 20
113.98
 30
0.0
 40
0.5
 41
0.5
  0
VERTEX
  8
0
 10
99.5261
 20
114.082
 30
0.0
 40
0.5
 41
0.5
  0
VERTEX
  8
0
 10
99.7236
 20
114.18
 30
0.0
 40
0.5
 41
0.5
  0
VERTEX
  8
0
 10
100.011
 20
114.232
 30
0.0
 40
0.5
 41
0.5
  0
VERTEX
  8
0
 10
100.121
 20
114.227
 30
0.0
 40
0.5
 41
0.5
  0
VERTEX
  8
0
 10
100.236
 20
114.207
 30
0.0
 40
0.5
 41
0.5
  0
VERTEX
  8
0
 10
100.651
 20
113.967
 30
0.0
 40
0.5
 41
0.5
  0
VERTEX
  8
0
 10
100.841
 20
113.407
 30
0.0
 40
0.5
 41
0.5
  0
VERTEX
  8
0
 10
100.841
 20
111.837
 30
0.0
 40
0.5
 41
0.5
  0
VERTEX
  8
0
 10
100.366
 20
111.837
 30
0.0
 40
0.5
 41
0.5
  0
VERTEX
  8
0
 10
100.366
 20
113.412
 30
0.0
 40
0.5
 41
0.5
  0
VERTEX
  8
0
 10
100.236
 20
113.697
 30
0.0
 40
0.5
 41
0.5
  0
VERTEX
  8
0
 10
99.946
 20
113.832
 30
0.0
 40
0.5
 41
0.5
  0
VERTEX
  8
0
 10
99.9011
 20
113.84
 30
0.0
 40
0.5
 41
0.5
  0
VERTEX
  8
0
 10
99.8562
 20
113.842
 30
0.0
 40
0.5
 41
0.5
  0
VERTEX
  8
0
 10
99.8486
 20
113.842
 30
0.0
 40
0.5
 41
0.5
  0
VERTEX
  8
0
 10
99.8411
 20
113.842
 30
0.0
 40
0.5
 41
0.5
  0
VERTEX
  8
0
 10
99.4712
 20
113.677
 30
0.0
 40
0.5
 41
0.5
  0
VERTEX
  8
0
 10
99.301
 20
113.172
 30
0.0
 40
0.5
 41
0.5
  0
VERTEX
  8
0
 10
99.301
 20
111.837
 30
0.0
 40
0.5
 41
0.5
  0
VERTEX
  8
0
 10
98.8311
 20
111.837
 30
0.0
 40
0.5
 41
0.5
  0
VERTEX
  8
0
 10
98.8311
 20
114.162
 30
0.0
 40
0.5
 41
0.5
  0
VERTEX
  8
0
 10
99.2661
 20
114.162
 30
0.0
 40
0.5
 41
0.5
  0
SEQEND
  8
0
  0
POLYLINE
8
0
 62
     0
 66
     1
 10
0
 20
0
 30
0.0
 70
     1
 40
0.5
 41
0.5
  0
VERTEX
  8
0
 10
103.399
 20
114.162
 30
0.0
 40
0.5
 41
0.5
  0
VERTEX
  8
0
 10
102.214
 20
111.757
 30
0.0
 40
0.5
 41
0.5
  0
VERTEX
  8
0
 10
101.034
 20
114.162
 30
0.0
 40
0.5
 41
0.5
  0
VERTEX
  8
0
 10
101.549
 20
114.162
 30
0.0
 40
0.5
 41
0.5
  0
VERTEX
  8
0
 10
102.214
 20
112.702
 30
0.0
 40
0.5
 41
0.5
  0
VERTEX
  8
0
 10
102.884
 20
114.162
 30
0.0
 40
0.5
 41
0.5
  0
VERTEX
  8
0
 10
103.399
 20
114.162
 30
0.0
 40
0.5
 41
0.5
  0
SEQEND
  8
0
  0
POLYLINE
8
0
 62
     0
 66
     1
 10
0
 20
0
 30
0.0
 70
     1
 40
0.5
 41
0.5
  0
VERTEX
  8
0
 10
105.329
 20
112.622
 30
0.0
 40
0.5
 41
0.5
  0
VERTEX
  8
0
 10
105.719
 20
112.427
 30
0.0
 40
0.5
 41
0.5
  0
VERTEX
  8
0
 10
105.662
 20
112.322
 30
0.0
 40
0.5
 41
0.5
  0
VERTEX
  8
0
 10
105.594
 20
112.217
 30
0.0
 40
0.5
 41
0.5
  0
VERTEX
  8
0
 10
105.25
 20
111.9
 30
0.0
 40
0.5
 41
0.5
  0
VERTEX
  8
0
 10
104.619
 20
111.757
 30
0.0
 40
0.5
 41
0.5
  0
VERTEX
  8
0
 10
103.852
 20
112.112
 30
0.0
 40
0.5
 41
0.5
  0
VERTEX
  8
0
 10
103.519
 20
112.897
 30
0.0
 40
0.5
 41
0.5
  0
VERTEX
  8
0
 10
103.517
 20
112.957
 30
0.0
 40
0.5
 41
0.5
  0
VERTEX
  8
0
 10
103.514
 20
113.017
 30
0.0
 40
0.5
 41
0.5
  0
VERTEX
  8
0
 10
103.514
 20
113.055
 30
0.0
 40
0.5
 41
0.5
  0
VERTEX
  8
0
 10
103.514
 20
113.092
 30
0.0
 40
0.5
 41
0.5
  0
VERTEX
  8
0
 10
103.822
 20
113.94
 30
0.0
 40
0.5
 41
0.5
  0
VERTEX
  8
0
 10
104.659
 20
114.312
 30
0.0
 40
0.5
 41
0.5
  0
VERTEX
  8
0
 10
105.387
 20
114.04
 30
0.0
 40
0.5
 41
0.5
  0
VERTEX
  8
0
 10
105.714
 20
113.442
 30
0.0
 40
0.5
 41
0.5
  0
VERTEX
  8
0
 10
105.752
 20
113.24
 30
0.0
 40
0.5
 41
0.5
  0
VERTEX
  8
0
 10
105.764
 20
113.047
 30
0.0
 40
0.5
 41
0.5
  0
VERTEX
  8
0
 10
105.764
 20
112.987
 30
0.0
 40
0.5
 41
0.5
  0
VERTEX
  8
0
 10
105.76
 20
112.932
 30
0.0
 40
0.5
 41
0.5
  0
VERTEX
  8
0
 10
103.99
 20
112.937
 30
0.0
 40
0.5
 41
0.5
  0
VERTEX
  8
0
 10
104.197
 20
112.4
 30
0.0
 40
0.5
 41
0.5
  0
VERTEX
  8
0
 10
104.699
 20
112.187
 30
0.0
 40
0.5
 41
0.5
  0
VERTEX
  8
0
 10
104.772
 20
112.192
 30
0.0
 40
0.5
 41
0.5
  0
VERTEX
  8
0
 10
104.849
 20
112.207
 30
0.0
 40
0.5
 41
0.5
  0
VERTEX
  8
0
 10
105.127
 20
112.347
 30
0.0
 40
0.5
 41
0.5
  0
VERTEX
  8
0
 10
105.329
 20
112.617
 30
0.0
 40
0.5
 41
0.5
  0
VERTEX
  8
0
 10
105.329
 20
112.622
 30
0.0
 40
0.5
 41
0.5
  0
SEQEND
  8
0
  0
POLYLINE
8
0
 62
     0
 66
     1
 10
0
 20
0
 30
0.0
 70
     1
 40
0.5
 41
0.5
  0
VERTEX
  8
0
 10
105.289
 20
113.292
 30
0.0
 40
0.5
 41
0.5
  0
VERTEX
  8
0
 10
105.092
 20
113.735
 30
0.0
 40
0.5
 41
0.5
  0
VERTEX
  8
0
 10
104.659
 20
113.917
 30
0.0
 40
0.5
 41
0.5
  0
VERTEX
  8
0
 10
104.544
 20
113.905
 30
0.0
 40
0.5
 41
0.5
  0
VERTEX
  8
0
 10
104.424
 20
113.867
 30
0.0
 40
0.5
 41
0.5
  0
VERTEX
  8
0
 10
104.154
 20
113.675
 30
0.0
 40
0.5
 41
0.5
  0
VERTEX
  8
0
 10
103.99
 20
113.287
 30
0.0
 40
0.5
 41
0.5
  0
VERTEX
  8
0
 10
105.289
 20
113.292
 30
0.0
 40
0.5
 41
0.5
  0
SEQEND
  8
0
  0
POLYLINE
8
0
 62
     0
 66
     1
 10
0
 20
0
 30
0.0
 70
     1
 40
0.5
 41
0.5
  0
VERTEX
  8
0
 10
106.586
 20
113.807
 30
0.0
 40
0.5
 41
0.5
  0
VERTEX
  8
0
 10
106.885
 20
114.105
 30
0.0
 40
0.5
 41
0.5
  0
VERTEX
  8
0
 10
107.221
 20
114.202
 30
0.0
 40
0.5
 41
0.5
  0
VERTEX
  8
0
 10
107.413
 20
114.18
 30
0.0
 40
0.5
 41
0.5
  0
VERTEX
  8
0
 10
107.611
 20
114.117
 30
0.0
 40
0.5
 41
0.5
  0
VERTEX
  8
0
 10
107.375
 20
113.687
 30
0.0
 40
0.5
 41
0.5
  0
VERTEX
  8
0
 10
107.278
 20
113.74
 30
0.0
 40
0.5
 41
0.5
  0
VERTEX
  8
0
 10
107.176
 20
113.777
 30
0.0
 40
0.5
 41
0.5
  0
VERTEX
  8
0
 10
107.125
 20
113.785
 30
0.0
 40
0.5
 41
0.5
  0
VERTEX
  8
0
 10
107.076
 20
113.787
 30
0.0
 40
0.5
 41
0.5
  0
VERTEX
  8
0
 10
106.753
 20
113.647
 30
0.0
 40
0.5
 41
0.5
  0
VERTEX
  8
0
 10
106.586
 20
113.212
 30
0.0
 40
0.5
 41
0.5
  0
VERTEX
  8
0
 10
106.586
 20
111.837
 30
0.0
 40
0.5
 41
0.5
  0
VERTEX
  8
0
 10
106.115
 20
111.837
 30
0.0
 40
0.5
 41
0.5
  0
VERTEX
  8
0
 10
106.115
 20
114.162
 30
0.0
 40
0.5
 41
0.5
  0
VERTEX
  8
0
 10
106.586
 20
114.162
 30
0.0
 40
0.5
 41
0.5
  0
VERTEX
  8
0
 10
106.586
 20
113.807
 30
0.0
 40
0.5
 41
0.5
  0
SEQEND
  8
0
  0
POLYLINE
8
0
 62
     0
 66
     1
 10
0
 20
0
 30
0.0
 70
     1
 40
0.5
 41
0.5
  0
VERTEX
  8
0
 10
108.048
 20
115.027
 30
0.0
 40
0.5
 41
0.5
  0
VERTEX
  8
0
 10
108.478
 20
115.027
 30
0.0
 40
0.5
 41
0.5
  0
VERTEX
  8
0
 10
108.478
 20
114.162
 30
0.0
 40
0.5
 41
0.5
  0
VERTEX
  8
0
 10
108.953
 20
114.162
 30
0.0
 40
0.5
 41
0.5
  0
VERTEX
  8
0
 10
108.953
 20
113.727
 30
0.0
 40
0.5
 41
0.5
  0
VERTEX
  8
0
 10
108.478
 20
113.727
 30
0.0
 40
0.5
 41
0.5
  0
VERTEX
  8
0
 10
108.478
 20
111.837
 30
0.0
 40
0.5
 41
0.5
  0
VERTEX
  8
0
 10
108.048
 20
111.837
 30
0.0
 40
0.5
 41
0.5
  0
VERTEX
  8
0
 10
108.048
 20
113.727
 30
0.0
 40
0.5
 41
0.5
  0
VERTEX
  8
0
 10
107.773
 20
113.727
 30
0.0
 40
0.5
 41
0.5
  0
VERTEX
  8
0
 10
107.773
 20
114.162
 30
0.0
 40
0.5
 41
0.5
  0
VERTEX
  8
0
 10
108.048
 20
114.162
 30
0.0
 40
0.5
 41
0.5
  0
VERTEX
  8
0
 10
108.048
 20
115.027
 30
0.0
 40
0.5
 41
0.5
  0
SEQEND
  8
0
  0
POLYLINE
8
0
 62
     0
 66
     1
 10
0
 20
0
 30
0.0
 70
     1
 40
0.5
 41
0.5
  0
VERTEX
  8
0
 10
110.798
 20
112.622
 30
0.0
 40
0.5
 41
0.5
  0
VERTEX
  8
0
 10
111.188
 20
112.427
 30
0.0
 40
0.5
 41
0.5
  0
VERTEX
  8
0
 10
111.13
 20
112.322
 30
0.0
 40
0.5
 41
0.5
  0
VERTEX
  8
0
 10
111.063
 20
112.217
 30
0.0
 40
0.5
 41
0.5
  0
VERTEX
  8
0
 10
110.718
 20
111.9
 30
0.0
 40
0.5
 41
0.5
  0
VERTEX
  8
0
 10
110.088
 20
111.757
 30
0.0
 40
0.5
 41
0.5
  0
VERTEX
  8
0
 10
109.32
 20
112.112
 30
0.0
 40
0.5
 41
0.5
  0
VERTEX
  8
0
 10
108.988
 20
112.897
 30
0.0
 40
0.5
 41
0.5
  0
VERTEX
  8
0
 10
108.985
 20
112.957
 30
0.0
 40
0.5
 41
0.5
  0
VERTEX
  8
0
 10
108.983
 20
113.017
 30
0.0
 40
0.5
 41
0.5
  0
VERTEX
  8
0
 10
108.983
 20
113.055
 30
0.0
 40
0.5
 41
0.5
  0
VERTEX
  8
0
 10
108.983
 20
113.092
 30
0.0
 40
0.5
 41
0.5
  0
VERTEX
  8
0
 10
109.29
 20
113.94
 30
0.0
 40
0.5
 41
0.5
  0
VERTEX
  8
0
 10
110.128
 20
114.312
 30
0.0
 40
0.5
 41
0.5
  0
VERTEX
  8
0
 10
110.855
 20
114.04
 30
0.0
 40
0.5
 41
0.5
  0
VERTEX
  8
0
 10
111.183
 20
113.442
 30
0.0
 40
0.5
 41
0.5
  0
VERTEX
  8
0
 10
111.22
 20
113.24
 30
0.0
 40
0.5
 41
0.5
  0
VERTEX
  8
0
 10
111.233
 20
113.047
 30
0.0
 40
0.5
 41
0.5
  0
VERTEX
  8
0
 10
111.233
 20
112.987
 30
0.0
 40
0.5
 41
0.5
  0
VERTEX
  8
0
 10
111.228
 20
112.932
 30
0.0
 40
0.5
 41
0.5
  0
VERTEX
  8
0
 10
109.458
 20
112.937
 30
0.0
 40
0.5
 41
0.5
  0
VERTEX
  8
0
 10
109.665
 20
112.4
 30
0.0
 40
0.5
 41
0.5
  0
VERTEX
  8
0
 10
110.168
 20
112.187
 30
0.0
 40
0.5
 41
0.5
  0
VERTEX
  8
0
 10
110.24
 20
112.192
 30
0.0
 40
0.5
 41
0.5
  0
VERTEX
  8
0
 10
110.318
 20
112.207
 30
0.0
 40
0.5
 41
0.5
  0
VERTEX
  8
0
 10
110.595
 20
112.347
 30
0.0
 40
0.5
 41
0.5
  0
VERTEX
  8
0
 10
110.798
 20
112.617
 30
0.0
 40
0.5
 41
0.5
  0
VERTEX
  8
0
 10
110.798
 20
112.622
 30
0.0
 40
0.5
 41
0.5
  0
SEQEND
  8
0
  0
POLYLINE
8
0
 62
     0
 66
     1
 10
0
 20
0
 30
0.0
 70
     1
 40
0.5
 41
0.5
  0
VERTEX
  8
0
 10
110.758
 20
113.292
 30
0.0
 40
0.5
 41
0.5
  0
VERTEX
  8
0
 10
110.56
 20
113.735
 30
0.0
 40
0.5
 41
0.5
  0
VERTEX
  8
0
 10
110.128
 20
113.917
 30
0.0
 40
0.5
 41
0.5
  0
VERTEX
  8
0
 10
110.013
 20
113.905
 30
0.0
 40
0.5
 41
0.5
  0
VERTEX
  8
0
 10
109.893
 20
113.867
 30
0.0
 40
0.5
 41
0.5
  0
VERTEX
  8
0
 10
109.623
 20
113.675
 30
0.0
 40
0.5
 41
0.5
  0
VERTEX
  8
0
 10
109.458
 20
113.287
 30
0.0
 40
0.5
 41
0.5
  0
VERTEX
  8
0
 10
110.758
 20
113.292
 30
0.0
 40
0.5
 41
0.5
  0
SEQEND
  8
0
  0
POLYLINE
8
0
 62
     0
 66
     1
 10
0
 20
0
 30
0.0
 70
     1
 40
0.5
 41
0.5
  0
VERTEX
  8
0
 10
112.054
 20
113.807
 30
0.0
 40
0.5
 41
0.5
  0
VERTEX
  8
0
 10
112.354
 20
114.105
 30
0.0
 40
0.5
 41
0.5
  0
VERTEX
  8
0
 10
112.689
 20
114.202
 30
0.0
 40
0.5
 41
0.5
  0
VERTEX
  8
0
 10
112.882
 20
114.18
 30
0.0
 40
0.5
 41
0.5
  0
VERTEX
  8
0
 10
113.079
 20
114.117
 30
0.0
 40
0.5
 41
0.5
  0
VERTEX
  8
0
 10
112.844
 20
113.687
 30
0.0
 40
0.5
 41
0.5
  0
VERTEX
  8
0
 10
112.747
 20
113.74
 30
0.0
 40
0.5
 41
0.5
  0
VERTEX
  8
0
 10
112.644
 20
113.777
 30
0.0
 40
0.5
 41
0.5
  0
VERTEX
  8
0
 10
112.594
 20
113.785
 30
0.0
 40
0.5
 41
0.5
  0
VERTEX
  8
0
 10
112.544
 20
113.787
 30
0.0
 40
0.5
 41
0.5
  0
VERTEX
  8
0
 10
112.222
 20
113.647
 30
0.0
 40
0.5
 41
0.5
  0
VERTEX
  8
0
 10
112.054
 20
113.212
 30
0.0
 40
0.5
 41
0.5
  0
VERTEX
  8
0
 10
112.054
 20
111.837
 30
0.0
 40
0.5
 41
0.5
  0
VERTEX
  8
0
 10
111.584
 20
111.837
 30
0.0
 40
0.5
 41
0.5
  0
VERTEX
  8
0
 10
111.584
 20
114.162
 30
0.0
 40
0.5
 41
0.5
  0
VERTEX
  8
0
 10
112.054
 20
114.162
 30
0.0
 40
0.5
 41
0.5
  0
VERTEX
  8
0
 10
112.054
 20
113.807
 30
0.0
 40
0.5
 41
0.5
  0
SEQEND
  8
0
  0
POLYLINE
8
0
 62
     0
 66
     1
 10
0
 20
0
 30
0.0
 70
     1
 40
0.5
 41
0.5
  0
VERTEX
  8
0
 10
118.463
 20
113.497
 30
0.0
 40
0.5
 41
0.5
  0
VERTEX
  8
0
 10
118.463
 20
111.637
 30
0.0
 40
0.5
 41
0.5
  0
VERTEX
  8
0
 10
118.087
 20
111.637
 30
0.0
 40
0.5
 41
0.5
  0
VERTEX
  8
0
 10
118.087
 20
113.497
 30
0.0
 40
0.5
 41
0.5
  0
VERTEX
  8
0
 10
118.463
 20
113.497
 30
0.0
 40
0.5
 41
0.5
  0
SEQEND
  8
0
  0
POLYLINE
8
0
 62
     0
 66
     1
 10
0
 20
0
 30
0.0
 70
     1
 40
0.5
 41
0.5
  0
VERTEX
  8
0
 10
118.275
 20
114.597
 30
0.0
 40
0.5
 41
0.5
  0
VERTEX
  8
0
 10
118.447
 20
114.517
 30
0.0
 40
0.5
 41
0.5
  0
VERTEX
  8
0
 10
118.503
 20
114.373
 30
0.0
 40
0.5
 41
0.5
  0
VERTEX
  8
0
 10
118.503
 20
114.367
 30
0.0
 40
0.5
 41
0.5
  0
VERTEX
  8
0
 10
118.503
 20
114.361
 30
0.0
 40
0.5
 41
0.5
  0
VERTEX
  8
0
 10
118.437
 20
114.197
 30
0.0
 40
0.5
 41
0.5
  0
VERTEX
  8
0
 10
118.275
 20
114.121
 30
0.0
 40
0.5
 41
0.5
  0
VERTEX
  8
0
 10
118.099
 20
114.193
 30
0.0
 40
0.5
 41
0.5
  0
VERTEX
  8
0
 10
118.039
 20
114.353
 30
0.0
 40
0.5
 41
0.5
  0
VERTEX
  8
0
 10
118.095
 20
114.519
 30
0.0
 40
0.5
 41
0.5
  0
VERTEX
  8
0
 10
118.275
 20
114.593
 30
0.0
 40
0.5
 41
0.5
  0
VERTEX
  8
0
 10
118.275
 20
114.597
 30
0.0
 40
0.5
 41
0.5
  0
SEQEND
  8
0
  0
POLYLINE
8
0
 62
     0
 66
     1
 10
0
 20
0
 30
0.0
 70
     1
 40
0.5
 41
0.5
  0
VERTEX
  8
0
 10
118.93
 20
113.181
 30
0.0
 40
0.5
 41
0.5
  0
VERTEX
  8
0
 10
118.93
 20
113.497
 30
0.0
 40
0.5
 41
0.5
  0
VERTEX
  8
0
 10
119.09
 20
113.497
 30
0.0
 40
0.5
 41
0.5
  0
VERTEX
  8
0
 10
119.09
 20
114.409
 30
0.0
 40
0.5
 41
0.5
  0
VERTEX
  8
0
 10
119.094
 20
114.557
 30
0.0
 40
0.5
 41
0.5
  0
VERTEX
  8
0
 10
119.118
 20
114.745
 30
0.0
 40
0.5
 41
0.5
  0
VERTEX
  8
0
 10
119.268
 20
115.039
 30
0.0
 40
0.5
 41
0.5
  0
VERTEX
  8
0
 10
119.638
 20
115.173
 30
0.0
 40
0.5
 41
0.5
  0
VERTEX
  8
0
 10
119.778
 20
115.161
 30
0.0
 40
0.5
 41
0.5
  0
VERTEX
  8
0
 10
119.938
 20
115.129
 30
0.0
 40
0.5
 41
0.5
  0
VERTEX
  8
0
 10
119.938
 20
114.757
 30
0.0
 40
0.5
 41
0.5
  0
VERTEX
  8
0
 10
119.814
 20
114.813
 30
0.0
 40
0.5
 41
0.5
  0
VERTEX
  8
0
 10
119.698
 20
114.833
 30
0.0
 40
0.5
 41
0.5
  0
VERTEX
  8
0
 10
119.51
 20
114.745
 30
0.0
 40
0.5
 41
0.5
  0
VERTEX
  8
0
 10
119.434
 20
114.469
 30
0.0
 40
0.5
 41
0.5
  0
VERTEX
  8
0
 10
119.434
 20
113.497
 30
0.0
 40
0.5
 41
0.5
  0
VERTEX
  8
0
 10
119.938
 20
113.497
 30
0.0
 40
0.5
 41
0.5
  0
VERTEX
  8
0
 10
119.938
 20
113.181
 30
0.0
 40
0.5
 41
0.5
  0
VERTEX
  8
0
 10
119.434
 20
113.181
 30
0.0
 40
0.5
 41
0.5
  0
VERTEX
  8
0
 10
119.434
 20
111.637
 30
0.0
 40
0.5
 41
0.5
  0
VERTEX
  8
0
 10
119.09
 20
111.637
 30
0.0
 40
0.5
 41
0.5
  0
VERTEX
  8
0
 10
119.09
 20
113.181
 30
0.0
 40
0.5
 41
0.5
  0
VERTEX
  8
0
 10
118.93
 20
113.181
 30
0.0
 40
0.5
 41
0.5
  0
SEQEND
  8
0
  0
POLYLINE
8
0
 62
     0
 66
     1
 10
0
 20
0
 30
0.0
 70
     1
 40
0.5
 41
0.5
  0
VERTEX
  8
0
 10
121.709
 20
113.497
 30
0.0
 40
0.5
 41
0.5
  0
VERTEX
  8
0
 10
121.709
 20
112.425
 30
0.0
 40
0.5
 41
0.5
  0
VERTEX
  8
0
 10
121.709
 20
112.415
 30
0.0
 40
0.5
 41
0.5
  0
VERTEX
  8
0
 10
121.709
 20
112.409
 30
0.0
 40
0.5
 41
0.5
  0
VERTEX
  8
0
 10
121.525
 20
111.811
 30
0.0
 40
0.5
 41
0.5
  0
VERTEX
  8
0
 10
120.921
 20
111.541
 30
0.0
 40
0.5
 41
0.5
  0
VERTEX
  8
0
 10
120.347
 20
111.749
 30
0.0
 40
0.5
 41
0.5
  0
VERTEX
  8
0
 10
120.101
 20
112.357
 30
0.0
 40
0.5
 41
0.5
  0
VERTEX
  8
0
 10
120.101
 20
113.497
 30
0.0
 40
0.5
 41
0.5
  0
VERTEX
  8
0
 10
120.481
 20
113.497
 30
0.0
 40
0.5
 41
0.5
  0
VERTEX
  8
0
 10
120.481
 20
112.457
 30
0.0
 40
0.5
 41
0.5
  0
VERTEX
  8
0
 10
120.487
 20
112.359
 30
0.0
 40
0.5
 41
0.5
  0
VERTEX
  8
0
 10
120.505
 20
112.257
 30
0.0
 40
0.5
 41
0.5
  0
VERTEX
  8
0
 10
120.633
 20
112.001
 30
0.0
 40
0.5
 41
0.5
  0
VERTEX
  8
0
 10
120.921
 20
111.885
 30
0.0
 40
0.5
 41
0.5
  0
VERTEX
  8
0
 10
121.243
 20
112.035
 30
0.0
 40
0.5
 41
0.5
  0
VERTEX
  8
0
 10
121.329
 20
112.421
 30
0.0
 40
0.5
 41
0.5
  0
VERTEX
  8
0
 10
121.329
 20
113.497
 30
0.0
 40
0.5
 41
0.5
  0
VERTEX
  8
0
 10
121.709
 20
113.497
 30
0.0
 40
0.5
 41
0.5
  0
SEQEND
  8
0
  0
POLYLINE
8
0
 62
     0
 66
     1
 10
0
 20
0
 30
0.0
 70
     1
 40
0.5
 41
0.5
  0
VERTEX
  8
0
 10
123.032
 20
113.085
 30
0.0
 40
0.5
 41
0.5
  0
VERTEX
  8
0
 10
123.032
 20
112.769
 30
0.0
 40
0.5
 41
0.5
  0
VERTEX
  8
0
 10
122.148
 20
112.769
 30
0.0
 40
0.5
 41
0.5
  0
VERTEX
  8
0
 10
122.148
 20
113.085
 30
0.0
 40
0.5
 41
0.5
  0
VERTEX
  8
0
 10
123.032
 20
113.085
 30
0.0
 40
0.5
 41
0.5
  0
SEQEND
  8
0
  0
POLYLINE
8
0
 62
     0
 66
     1
 10
0
 20
0
 30
0.0
 70
     1
 40
0.5
 41
0.5
  0
VERTEX
  8
0
 10
125.142
 20
112.393
 30
0.0
 40
0.5
 41
0.5
  0
VERTEX
  8
0
 10
125.49
 20
112.393
 30
0.0
 40
0.5
 41
0.5
  0
VERTEX
  8
0
 10
125.49
 20
112.077
 30
0.0
 40
0.5
 41
0.5
  0
VERTEX
  8
0
 10
125.142
 20
112.077
 30
0.0
 40
0.5
 41
0.5
  0
VERTEX
  8
0
 10
125.142
 20
111.637
 30
0.0
 40
0.5
 41
0.5
  0
VERTEX
  8
0
 10
124.766
 20
111.637
 30
0.0
 40
0.5
 41
0.5
  0
VERTEX
  8
0
 10
124.766
 20
112.077
 30
0.0
 40
0.5
 41
0.5
  0
VERTEX
  8
0
 10
123.286
 20
112.077
 30
0.0
 40
0.5
 41
0.5
  0
VERTEX
  8
0
 10
125.142
 20
114.785
 30
0.0
 40
0.5
 41
0.5
  0
VERTEX
  8
0
 10
125.142
 20
112.393
 30
0.0
 40
0.5
 41
0.5
  0
SEQEND
  8
0
  0
POLYLINE
8
0
 62
     0
 66
     1
 10
0
 20
0
 30
0.0
 70
     1
 40
0.5
 41
0.5
  0
VERTEX
  8
0
 10
123.914
 20
112.393
 30
0.0
 40
0.5
 41
0.5
  0
VERTEX
  8
0
 10
124.766
 20
112.393
 30
0.0
 40
0.5
 41
0.5
  0
VERTEX
  8
0
 10
124.766
 20
113.685
 30
0.0
 40
0.5
 41
0.5
  0
VERTEX
  8
0
 10
123.914
 20
112.393
 30
0.0
 40
0.5
 41
0.5
  0
SEQEND
  8
0
  0
POLYLINE
8
0
 62
     0
 66
     1
 10
0
 20
0
 30
0.0
 70
     1
 40
0.5
 41
0.5
  0
VERTEX
  8
0
 10
312.475
 20
113.544
 30
0.0
 40
0.5
 41
0.5
  0
VERTEX
  8
0
 10
312.986
 20
114.052
 30
0.0
 40
0.5
 41
0.5
  0
VERTEX
  8
0
 10
312.475
 20
114.565
 30
0.0
 40
0.5
 41
0.5
  0
VERTEX
  8
0
 10
309.584
 20
114.567
 30
0.0
 40
0.5
 41
0.5
  0
VERTEX
  8
0
 10
309.38
 20
114.358
 30
0.0
 40
0.5
 41
0.5
  0
VERTEX
  8
0
 10
309.381
 20
113.751
 30
0.0
 40
0.5
 41
0.5
  0
VERTEX
  8
0
 10
309.584
 20
113.542
 30
0.0
 40
0.5
 41
0.5
  0
VERTEX
  8
0
 10
312.475
 20
113.544
 30
0.0
 40
0.5
 41
0.5
  0
SEQEND
  8
0
  0
POLYLINE
8
0
 62
     0
 66
     1
 10
0
 20
0
 30
0.0
 70
     1
 40
0.5
 41
0.5
  0
VERTEX
  8
0
 10
333.739
 20
114.03
 30
0.0
 40
0.5
 41
0.5
  0
VERTEX
  8
0
 10
333.875
 20
114.08
 30
0.0
 40
0.5
 41
0.5
  0
VERTEX
  8
0
 10
334.025
 20
114.016
 30
0.0
 40
0.5
 41
0.5
  0
VERTEX
  8
0
 10
335.127
 20
112.877
 30
0.0
 40
0.5
 41
0.5
  0
VERTEX
  8
0
 10
332.623
 20
112.877
 30
0.0
 40
0.5
 41
0.5
  0
VERTEX
  8
0
 10
333.739
 20
114.03
 30
0.0
 40
0.5
 41
0.5
  0
SEQEND
  8
0
  0
POLYLINE
8
0
 62
     0
 66
     1
 10
0
 20
0
 30
0.0
 70
     1
 40
0.5
 41
0.5
  0
VERTEX
  8
0
 10
340.319
 20
113.857
 30
0.0
 40
0.5
 41
0.5
  0
VERTEX
  8
0
 10
340.657
 20
114.513
 30
0.0
 40
0.5
 41
0.5
  0
VERTEX
  8
0
 10
340.995
 20
114.588
 30
0.0
 40
0.5
 41
0.5
  0
VERTEX
  8
0
 10
343.603
 20
114.588
 30
0.0
 40
0.5
 41
0.5
  0
VERTEX
  8
0
 10
344.376
 20
113.774
 30
0.0
 40
0.5
 41
0.5
  0
VERTEX
  8
0
 10
345.921
 20
113.774
 30
0.0
 40
0.5
 41
0.5
  0
VERTEX
  8
0
 10
345.722
 20
114.686
 30
0.0
 40
0.5
 41
0.5
  0
VERTEX
  8
0
 10
345.284
 20
115.134
 30
0.0
 40
0.5
 41
0.5
  0
VERTEX
  8
0
 10
344.846
 20
115.283
 30
0.0
 40
0.5
 41
0.5
  0
VERTEX
  8
0
 10
344.647
 20
115.297
 30
0.0
 40
0.5
 41
0.5
  0
VERTEX
  8
0
 10
340.061
 20
115.297
 30
0.0
 40
0.5
 41
0.5
  0
VERTEX
  8
0
 10
339.862
 20
115.283
 30
0.0
 40
0.5
 41
0.5
  0
VERTEX
  8
0
 10
339.424
 20
115.134
 30
0.0
 40
0.5
 41
0.5
  0
VERTEX
  8
0
 10
338.986
 20
114.686
 30
0.0
 40
0.5
 41
0.5
  0
VERTEX
  8
0
 10
338.787
 20
113.774
 30
0.0
 40
0.5
 41
0.5
  0
VERTEX
  8
0
 10
338.787
 20
113.084
 30
0.0
 40
0.5
 41
0.5
  0
VERTEX
  8
0
 10
338.986
 20
112.173
 30
0.0
 40
0.5
 41
0.5
  0
VERTEX
  8
0
 10
339.424
 20
111.725
 30
0.0
 40
0.5
 41
0.5
  0
VERTEX
  8
0
 10
339.862
 20
111.575
 30
0.0
 40
0.5
 41
0.5
  0
VERTEX
  8
0
 10
340.061
 20
111.562
 30
0.0
 40
0.5
 41
0.5
  0
VERTEX
  8
0
 10
344.647
 20
111.562
 30
0.0
 40
0.5
 41
0.5
  0
VERTEX
  8
0
 10
345.284
 20
111.725
 30
0.0
 40
0.5
 41
0.5
  0
VERTEX
  8
0
 10
345.722
 20
112.173
 30
0.0
 40
0.5
 41
0.5
  0
VERTEX
  8
0
 10
345.921
 20
113.084
 30
0.0
 40
0.5
 41
0.5
  0
VERTEX
  8
0
 10
344.376
 20
113.084
 30
0.0
 40
0.5
 41
0.5
  0
VERTEX
  8
0
 10
343.99
 20
112.346
 30
0.0
 40
0.5
 41
0.5
  0
VERTEX
  8
0
 10
343.603
 20
112.27
 30
0.0
 40
0.5
 41
0.5
  0
VERTEX
  8
0
 10
340.995
 20
112.27
 30
0.0
 40
0.5
 41
0.5
  0
VERTEX
  8
0
 10
340.319
 20
113.001
 30
0.0
 40
0.5
 41
0.5
  0
VERTEX
  8
0
 10
340.319
 20
113.857
 30
0.0
 40
0.5
 41
0.5
  0
SEQEND
  8
0
  0
POLYLINE
8
0
 62
     0
 66
     1
 10
0
 20
0
 30
0.0
 70
     1
 40
0.5
 41
0.5
  0
VERTEX
  8
0
 10
335.756
 20
112.229
 30
0.0
 40
0.5
 41
0.5
  0
VERTEX
  8
0
 10
331.999
 20
112.229
 30
0.0
 40
0.5
 41
0.5
  0
VERTEX
  8
0
 10
331.359
 20
111.562
 30
0.0
 40
0.5
 41
0.5
  0
VERTEX
  8
0
 10
329.896
 20
111.562
 30
0.0
 40
0.5
 41
0.5
  0
VERTEX
  8
0
 10
333.036
 20
114.93
 30
0.0
 40
0.5
 41
0.5
  0
VERTEX
  8
0
 10
333.876
 20
115.296
 30
0.0
 40
0.5
 41
0.5
  0
VERTEX
  8
0
 10
334.71
 20
114.937
 30
0.0
 40
0.5
 41
0.5
  0
VERTEX
  8
0
 10
337.863
 20
111.562
 30
0.0
 40
0.5
 41
0.5
  0
VERTEX
  8
0
 10
336.4
 20
111.562
 30
0.0
 40
0.5
 41
0.5
  0
VERTEX
  8
0
 10
335.756
 20
112.229
 30
0.0
 40
0.5
 41
0.5
  0
SEQEND
  8
0
  0
POLYLINE
8
0
 62
     0
 66
     1
 10
0
 20
0
 30
0.0
 70
     1
 40
0.5
 41
0.5
  0
VERTEX
  8
0
 10
326.67
 20
111.929
 30
0.0
 40
0.5
 41
0.5
  0
VERTEX
  8
0
 10
327.51
 20
111.563
 30
0.0
 40
0.5
 41
0.5
  0
VERTEX
  8
0
 10
328.344
 20
111.922
 30
0.0
 40
0.5
 41
0.5
  0
VERTEX
  8
0
 10
331.497
 20
115.297
 30
0.0
 40
0.5
 41
0.5
  0
VERTEX
  8
0
 10
330.034
 20
115.297
 30
0.0
 40
0.5
 41
0.5
  0
VERTEX
  8
0
 10
327.659
 20
112.842
 30
0.0
 40
0.5
 41
0.5
  0
VERTEX
  8
0
 10
327.509
 20
112.779
 30
0.0
 40
0.5
 41
0.5
  0
VERTEX
  8
0
 10
327.373
 20
112.829
 30
0.0
 40
0.5
 41
0.5
  0
VERTEX
  8
0
 10
324.993
 20
115.297
 30
0.0
 40
0.5
 41
0.5
  0
VERTEX
  8
0
 10
323.53
 20
115.297
 30
0.0
 40
0.5
 41
0.5
  0
VERTEX
  8
0
 10
326.67
 20
111.929
 30
0.0
 40
0.5
 41
0.5
  0
SEQEND
  8
0
  0
POLYLINE
8
0
 62
     0
 66
     1
 10
0
 20
0
 30
0.0
 70
     1
 40
0.5
 41
0.5
  0
VERTEX
  8
0
 10
322.408
 20
114.565
 30
0.0
 40
0.5
 41
0.5
  0
VERTEX
  8
0
 10
322.408
 20
115.299
 30
0.0
 40
0.5
 41
0.5
  0
VERTEX
  8
0
 10
316.47
 20
115.298
 30
0.0
 40
0.5
 41
0.5
  0
VERTEX
  8
0
 10
315.949
 20
114.776
 30
0.0
 40
0.5
 41
0.5
  0
VERTEX
  8
0
 10
315.949
 20
112.085
 30
0.0
 40
0.5
 41
0.5
  0
VERTEX
  8
0
 10
316.47
 20
111.564
 30
0.0
 40
0.5
 41
0.5
  0
VERTEX
  8
0
 10
322.398
 20
111.562
 30
0.0
 40
0.5
 41
0.5
  0
VERTEX
  8
0
 10
322.398
 20
112.293
 30
0.0
 40
0.5
 41
0.5
  0
VERTEX
  8
0
 10
317.671
 20
112.291
 30
0.0
 40
0.5
 41
0.5
  0
VERTEX
  8
0
 10
317.546
 20
112.416
 30
0.0
 40
0.5
 41
0.5
  0
VERTEX
  8
0
 10
317.546
 20
112.959
 30
0.0
 40
0.5
 41
0.5
  0
VERTEX
  8
0
 10
317.671
 20
113.084
 30
0.0
 40
0.5
 41
0.5
  0
VERTEX
  8
0
 10
322.408
 20
113.084
 30
0.0
 40
0.5
 41
0.5
  0
VERTEX
  8
0
 10
322.408
 20
113.751
 30
0.0
 40
0.5
 41
0.5
  0
VERTEX
  8
0
 10
317.671
 20
113.754
 30
0.0
 40
0.5
 41
0.5
  0
VERTEX
  8
0
 10
317.546
 20
113.879
 30
0.0
 40
0.5
 41
0.5
  0
VERTEX
  8
0
 10
317.546
 20
114.44
 30
0.0
 40
0.5
 41
0.5
  0
VERTEX
  8
0
 10
317.671
 20
114.565
 30
0.0
 40
0.5
 41
0.5
  0
VERTEX
  8
0
 10
322.408
 20
114.565
 30
0.0
 40
0.5
 41
0.5
  0
SEQEND
  8
0
  0
POLYLINE
8
0
 62
     0
 66
     1
 10
0
 20
0
 30
0.0
 70
     1
 40
0.5
 41
0.5
  0
VERTEX
  8
0
 10
309.375
 20
112.583
 30
0.0
 40
0.5
 41
0.5
  0
VERTEX
  8
0
 10
309.584
 20
112.794
 30
0.0
 40
0.5
 41
0.5
  0
VERTEX
  8
0
 10
312.026
 20
112.794
 30
0.0
 40
0.5
 41
0.5
  0
VERTEX
  8
0
 10
312.511
 20
112.663
 30
0.0
 40
0.5
 41
0.5
  0
VERTEX
  8
0
 10
312.997
 20
111.562
 30
0.0
 40
0.5
 41
0.5
  0
VERTEX
  8
0
 10
314.68
 20
111.562
 30
0.0
 40
0.5
 41
0.5
  0
VERTEX
  8
0
 10
314.469
 20
112.369
 30
0.0
 40
0.5
 41
0.5
  0
VERTEX
  8
0
 10
314.023
 20
112.717
 30
0.0
 40
0.5
 41
0.5
  0
VERTEX
  8
0
 10
314
 20
112.727
 30
0.0
 40
0.5
 41
0.5
  0
VERTEX
  8
0
 10
313.93
 20
112.839
 30
0.0
 40
0.5
 41
0.5
  0
VERTEX
  8
0
 10
314.001
 20
112.952
 30
0.0
 40
0.5
 41
0.5
  0
VERTEX
  8
0
 10
314.023
 20
112.959
 30
0.0
 40
0.5
 41
0.5
  0
VERTEX
  8
0
 10
314.662
 20
114.105
 30
0.0
 40
0.5
 41
0.5
  0
VERTEX
  8
0
 10
314.087
 20
115.155
 30
0.0
 40
0.5
 41
0.5
  0
VERTEX
  8
0
 10
313.512
 20
115.297
 30
0.0
 40
0.5
 41
0.5
  0
VERTEX
  8
0
 10
308.375
 20
115.298
 30
0.0
 40
0.5
 41
0.5
  0
VERTEX
  8
0
 10
307.839
 20
114.735
 30
0.0
 40
0.5
 41
0.5
  0
VERTEX
  8
0
 10
307.836
 20
111.562
 30
0.0
 40
0.5
 41
0.5
  0
VERTEX
  8
0
 10
309.377
 20
111.562
 30
0.0
 40
0.5
 41
0.5
  0
VERTEX
  8
0
 10
309.377
 20
112.583
 30
0.0
 40
0.5
 41
0.5
  0
VERTEX
  8
0
 10
309.375
 20
112.583
 30
0.0
 40
0.5
 41
0.5
  0
SEQEND
  8
0
  0
POLYLINE
8
0
 62
     0
 66
     1
 10
0
 20
0
 30
0.0
 70
     1
 40
0.5
 41
0.5
  0
VERTEX
  8
0
 10
170.761
 20
77.3416
 30
0.0
 40
0.5
 41
0.5
  0
VERTEX
  8
0
 10
170.785
 20
77.3806
 30
0.0
 40
0.5
 41
0.5
  0
VERTEX
  8
0
 10
170.833
 20
77.4375
 30
0.0
 40
0.5
 41
0.5
  0
VERTEX
  8
0
 10
170.952
 20
77.5156
 30
0.0
 40
0.5
 41
0.5
  0
VERTEX
  8
0
 10
171.139
 20
77.5518
 30
0.0
 40
0.5
 41
0.5
  0
VERTEX
  8
0
 10
171.195
 20
77.5486
 30
0.0
 40
0.5
 41
0.5
  0
VERTEX
  8
0
 10
171.25
 20
77.5396
 30
0.0
 40
0.5
 41
0.5
  0
VERTEX
  8
0
 10
171.411
 20
77.4661
 30
0.0
 40
0.5
 41
0.5
  0
VERTEX
  8
0
 10
171.542
 20
77.2935
 30
0.0
 40
0.5
 41
0.5
  0
VERTEX
  8
0
 10
171.567
 20
77.3311
 30
0.0
 40
0.5
 41
0.5
  0
VERTEX
  8
0
 10
171.595
 20
77.3687
 30
0.0
 40
0.5
 41
0.5
  0
VERTEX
  8
0
 10
171.751
 20
77.4946
 30
0.0
 40
0.5
 41
0.5
  0
VERTEX
  8
0
 10
171.982
 20
77.5544
 30
0.0
 40
0.5
 41
0.5
  0
VERTEX
  8
0
 10
172.011
 20
77.5544
 30
0.0
 40
0.5
 41
0.5
  0
VERTEX
  8
0
 10
172.036
 20
77.5518
 30
0.0
 40
0.5
 41
0.5
  0
VERTEX
  8
0
 10
172.362
 20
77.3596
 30
0.0
 40
0.5
 41
0.5
  0
VERTEX
  8
0
 10
172.438
 20
76.9365
 30
0.0
 40
0.5
 41
0.5
  0
VERTEX
  8
0
 10
172.438
 20
76.0906
 30
0.0
 40
0.5
 41
0.5
  0
VERTEX
  8
0
 10
172.177
 20
76.0906
 30
0.0
 40
0.5
 41
0.5
  0
VERTEX
  8
0
 10
172.177
 20
76.9397
 30
0.0
 40
0.5
 41
0.5
  0
VERTEX
  8
0
 10
172.119
 20
77.1946
 30
0.0
 40
0.5
 41
0.5
  0
VERTEX
  8
0
 10
171.919
 20
77.2935
 30
0.0
 40
0.5
 41
0.5
  0
VERTEX
  8
0
 10
171.694
 20
77.2112
 30
0.0
 40
0.5
 41
0.5
  0
VERTEX
  8
0
 10
171.61
 20
76.9155
 30
0.0
 40
0.5
 41
0.5
  0
VERTEX
  8
0
 10
171.61
 20
76.0906
 30
0.0
 40
0.5
 41
0.5
  0
VERTEX
  8
0
 10
171.328
 20
76.0906
 30
0.0
 40
0.5
 41
0.5
  0
VERTEX
  8
0
 10
171.328
 20
76.9875
 30
0.0
 40
0.5
 41
0.5
  0
VERTEX
  8
0
 10
171.264
 20
77.2036
 30
0.0
 40
0.5
 41
0.5
  0
VERTEX
  8
0
 10
171.125
 20
77.2876
 30
0.0
 40
0.5
 41
0.5
  0
VERTEX
  8
0
 10
171.096
 20
77.292
 30
0.0
 40
0.5
 41
0.5
  0
VERTEX
  8
0
 10
171.067
 20
77.2935
 30
0.0
 40
0.5
 41
0.5
  0
VERTEX
  8
0
 10
171.04
 20
77.2935
 30
0.0
 40
0.5
 41
0.5
  0
VERTEX
  8
0
 10
171.013
 20
77.2905
 30
0.0
 40
0.5
 41
0.5
  0
VERTEX
  8
0
 10
170.839
 20
77.2095
 30
0.0
 40
0.5
 41
0.5
  0
VERTEX
  8
0
 10
170.761
 20
76.9365
 30
0.0
 40
0.5
 41
0.5
  0
VERTEX
  8
0
 10
170.761
 20
76.0906
 30
0.0
 40
0.5
 41
0.5
  0
VERTEX
  8
0
 10
170.476
 20
76.0906
 30
0.0
 40
0.5
 41
0.5
  0
VERTEX
  8
0
 10
170.476
 20
77.4856
 30
0.0
 40
0.5
 41
0.5
  0
VERTEX
  8
0
 10
170.761
 20
77.4856
 30
0.0
 40
0.5
 41
0.5
  0
VERTEX
  8
0
 10
170.761
 20
77.3416
 30
0.0
 40
0.5
 41
0.5
  0
SEQEND
  8
0
  0
POLYLINE
8
0
 62
     0
 66
     1
 10
0
 20
0
 30
0.0
 70
     1
 40
0.5
 41
0.5
  0
VERTEX
  8
0
 10
173.142
 20
77.4856
 30
0.0
 40
0.5
 41
0.5
  0
VERTEX
  8
0
 10
173.142
 20
76.0906
 30
0.0
 40
0.5
 41
0.5
  0
VERTEX
  8
0
 10
172.86
 20
76.0906
 30
0.0
 40
0.5
 41
0.5
  0
VERTEX
  8
0
 10
172.86
 20
77.4856
 30
0.0
 40
0.5
 41
0.5
  0
VERTEX
  8
0
 10
173.142
 20
77.4856
 30
0.0
 40
0.5
 41
0.5
  0
SEQEND
  8
0
  0
POLYLINE
8
0
 62
     0
 66
     1
 10
0
 20
0
 30
0.0
 70
     1
 40
0.5
 41
0.5
  0
VERTEX
  8
0
 10
173
 20
78.3105
 30
0.0
 40
0.5
 41
0.5
  0
VERTEX
  8
0
 10
173.13
 20
78.2505
 30
0.0
 40
0.5
 41
0.5
  0
VERTEX
  8
0
 10
173.172
 20
78.1426
 30
0.0
 40
0.5
 41
0.5
  0
VERTEX
  8
0
 10
173.172
 20
78.1379
 30
0.0
 40
0.5
 41
0.5
  0
VERTEX
  8
0
 10
173.172
 20
78.1335
 30
0.0
 40
0.5
 41
0.5
  0
VERTEX
  8
0
 10
173.122
 20
78.0107
 30
0.0
 40
0.5
 41
0.5
  0
VERTEX
  8
0
 10
173
 20
77.9536
 30
0.0
 40
0.5
 41
0.5
  0
VERTEX
  8
0
 10
172.869
 20
78.0076
 30
0.0
 40
0.5
 41
0.5
  0
VERTEX
  8
0
 10
172.823
 20
78.1274
 30
0.0
 40
0.5
 41
0.5
  0
VERTEX
  8
0
 10
172.865
 20
78.2522
 30
0.0
 40
0.5
 41
0.5
  0
VERTEX
  8
0
 10
173
 20
78.3076
 30
0.0
 40
0.5
 41
0.5
  0
VERTEX
  8
0
 10
173
 20
78.3105
 30
0.0
 40
0.5
 41
0.5
  0
SEQEND
  8
0
  0
POLYLINE
8
0
 62
     0
 66
     1
 10
0
 20
0
 30
0.0
 70
     1
 40
0.5
 41
0.5
  0
VERTEX
  8
0
 10
173.824
 20
77.4856
 30
0.0
 40
0.5
 41
0.5
  0
VERTEX
  8
0
 10
173.824
 20
77.2966
 30
0.0
 40
0.5
 41
0.5
  0
VERTEX
  8
0
 10
173.908
 20
77.376
 30
0.0
 40
0.5
 41
0.5
  0
VERTEX
  8
0
 10
173.98
 20
77.4375
 30
0.0
 40
0.5
 41
0.5
  0
VERTEX
  8
0
 10
174.099
 20
77.4961
 30
0.0
 40
0.5
 41
0.5
  0
VERTEX
  8
0
 10
174.271
 20
77.5276
 30
0.0
 40
0.5
 41
0.5
  0
VERTEX
  8
0
 10
174.337
 20
77.5247
 30
0.0
 40
0.5
 41
0.5
  0
VERTEX
  8
0
 10
174.406
 20
77.5125
 30
0.0
 40
0.5
 41
0.5
  0
VERTEX
  8
0
 10
174.656
 20
77.3687
 30
0.0
 40
0.5
 41
0.5
  0
VERTEX
  8
0
 10
174.77
 20
77.0325
 30
0.0
 40
0.5
 41
0.5
  0
VERTEX
  8
0
 10
174.77
 20
76.0906
 30
0.0
 40
0.5
 41
0.5
  0
VERTEX
  8
0
 10
174.485
 20
76.0906
 30
0.0
 40
0.5
 41
0.5
  0
VERTEX
  8
0
 10
174.485
 20
77.0356
 30
0.0
 40
0.5
 41
0.5
  0
VERTEX
  8
0
 10
174.406
 20
77.2065
 30
0.0
 40
0.5
 41
0.5
  0
VERTEX
  8
0
 10
174.232
 20
77.2876
 30
0.0
 40
0.5
 41
0.5
  0
VERTEX
  8
0
 10
174.206
 20
77.292
 30
0.0
 40
0.5
 41
0.5
  0
VERTEX
  8
0
 10
174.178
 20
77.2935
 30
0.0
 40
0.5
 41
0.5
  0
VERTEX
  8
0
 10
174.174
 20
77.2935
 30
0.0
 40
0.5
 41
0.5
  0
VERTEX
  8
0
 10
174.169
 20
77.2935
 30
0.0
 40
0.5
 41
0.5
  0
VERTEX
  8
0
 10
173.948
 20
77.1946
 30
0.0
 40
0.5
 41
0.5
  0
VERTEX
  8
0
 10
173.845
 20
76.8916
 30
0.0
 40
0.5
 41
0.5
  0
VERTEX
  8
0
 10
173.845
 20
76.0906
 30
0.0
 40
0.5
 41
0.5
  0
VERTEX
  8
0
 10
173.563
 20
76.0906
 30
0.0
 40
0.5
 41
0.5
  0
VERTEX
  8
0
 10
173.563
 20
77.4856
 30
0.0
 40
0.5
 41
0.5
  0
VERTEX
  8
0
 10
173.824
 20
77.4856
 30
0.0
 40
0.5
 41
0.5
  0
SEQEND
  8
0
  0
POLYLINE
8
0
 62
     0
 66
     1
 10
0
 20
0
 30
0.0
 70
     1
 40
0.5
 41
0.5
  0
VERTEX
  8
0
 10
184.482
 20
77.6025
 30
0.0
 40
0.5
 41
0.5
  0
VERTEX
  8
0
 10
184.767
 20
77.6025
 30
0.0
 40
0.5
 41
0.5
  0
VERTEX
  8
0
 10
184.767
 20
76.9875
 30
0.0
 40
0.5
 41
0.5
  0
VERTEX
  8
0
 10
185.403
 20
76.9875
 30
0.0
 40
0.5
 41
0.5
  0
VERTEX
  8
0
 10
185.403
 20
76.7295
 30
0.0
 40
0.5
 41
0.5
  0
VERTEX
  8
0
 10
184.767
 20
76.7295
 30
0.0
 40
0.5
 41
0.5
  0
VERTEX
  8
0
 10
184.767
 20
76.0906
 30
0.0
 40
0.5
 41
0.5
  0
VERTEX
  8
0
 10
184.482
 20
76.0906
 30
0.0
 40
0.5
 41
0.5
  0
VERTEX
  8
0
 10
184.482
 20
76.7295
 30
0.0
 40
0.5
 41
0.5
  0
VERTEX
  8
0
 10
183.867
 20
76.7295
 30
0.0
 40
0.5
 41
0.5
  0
VERTEX
  8
0
 10
183.867
 20
76.9875
 30
0.0
 40
0.5
 41
0.5
  0
VERTEX
  8
0
 10
184.482
 20
76.9875
 30
0.0
 40
0.5
 41
0.5
  0
VERTEX
  8
0
 10
184.482
 20
77.6025
 30
0.0
 40
0.5
 41
0.5
  0
SEQEND
  8
0
  0
POLYLINE
8
0
 62
     0
 66
     1
 10
0
 20
0
 30
0.0
 70
     1
 40
0.5
 41
0.5
  0
VERTEX
  8
0
 10
185.827
 20
78.0977
 30
0.0
 40
0.5
 41
0.5
  0
VERTEX
  8
0
 10
185.992
 20
78.3826
 30
0.0
 40
0.5
 41
0.5
  0
VERTEX
  8
0
 10
186.49
 20
78.3826
 30
0.0
 40
0.5
 41
0.5
  0
VERTEX
  8
0
 10
186.49
 20
76.0906
 30
0.0
 40
0.5
 41
0.5
  0
VERTEX
  8
0
 10
186.205
 20
76.0906
 30
0.0
 40
0.5
 41
0.5
  0
VERTEX
  8
0
 10
186.205
 20
78.0977
 30
0.0
 40
0.5
 41
0.5
  0
VERTEX
  8
0
 10
185.827
 20
78.0977
 30
0.0
 40
0.5
 41
0.5
  0
SEQEND
  8
0
  0
POLYLINE
8
0
 62
     0
 66
     1
 10
0
 20
0
 30
0.0
 70
     1
 40
0.5
 41
0.5
  0
VERTEX
  8
0
 10
188.354
 20
77.3416
 30
0.0
 40
0.5
 41
0.5
  0
VERTEX
  8
0
 10
188.483
 20
77.5439
 30
0.0
 40
0.5
 41
0.5
  0
VERTEX
  8
0
 10
188.522
 20
77.7256
 30
0.0
 40
0.5
 41
0.5
  0
VERTEX
  8
0
 10
188.4
 20
78.0015
 30
0.0
 40
0.5
 41
0.5
  0
VERTEX
  8
0
 10
188.126
 20
78.1187
 30
0.0
 40
0.5
 41
0.5
  0
VERTEX
  8
0
 10
188.11
 20
78.1187
 30
0.0
 40
0.5
 41
0.5
  0
VERTEX
  8
0
 10
188.093
 20
78.1187
 30
0.0
 40
0.5
 41
0.5
  0
VERTEX
  8
0
 10
187.792
 20
78.0105
 30
0.0
 40
0.5
 41
0.5
  0
VERTEX
  8
0
 10
187.664
 20
77.7734
 30
0.0
 40
0.5
 41
0.5
  0
VERTEX
  8
0
 10
187.664
 20
77.7615
 30
0.0
 40
0.5
 41
0.5
  0
VERTEX
  8
0
 10
187.664
 20
77.7495
 30
0.0
 40
0.5
 41
0.5
  0
VERTEX
  8
0
 10
187.664
 20
77.7419
 30
0.0
 40
0.5
 41
0.5
  0
VERTEX
  8
0
 10
187.667
 20
77.7346
 30
0.0
 40
0.5
 41
0.5
  0
VERTEX
  8
0
 10
187.667
 20
77.7256
 30
0.0
 40
0.5
 41
0.5
  0
VERTEX
  8
0
 10
187.667
 20
77.7166
 30
0.0
 40
0.5
 41
0.5
  0
VERTEX
  8
0
 10
187.361
 20
77.7195
 30
0.0
 40
0.5
 41
0.5
  0
VERTEX
  8
0
 10
187.565
 20
78.1816
 30
0.0
 40
0.5
 41
0.5
  0
VERTEX
  8
0
 10
188.069
 20
78.3796
 30
0.0
 40
0.5
 41
0.5
  0
VERTEX
  8
0
 10
188.087
 20
78.3796
 30
0.0
 40
0.5
 41
0.5
  0
VERTEX
  8
0
 10
188.105
 20
78.3796
 30
0.0
 40
0.5
 41
0.5
  0
VERTEX
  8
0
 10
188.636
 20
78.1921
 30
0.0
 40
0.5
 41
0.5
  0
VERTEX
  8
0
 10
188.837
 20
77.7375
 30
0.0
 40
0.5
 41
0.5
  0
VERTEX
  8
0
 10
188.822
 20
77.5981
 30
0.0
 40
0.5
 41
0.5
  0
VERTEX
  8
0
 10
188.774
 20
77.4585
 30
0.0
 40
0.5
 41
0.5
  0
VERTEX
  8
0
 10
188.716
 20
77.3506
 30
0.0
 40
0.5
 41
0.5
  0
VERTEX
  8
0
 10
188.636
 20
77.2456
 30
0.0
 40
0.5
 41
0.5
  0
VERTEX
  8
0
 10
187.88
 20
76.3516
 30
0.0
 40
0.5
 41
0.5
  0
VERTEX
  8
0
 10
188.801
 20
76.3516
 30
0.0
 40
0.5
 41
0.5
  0
VERTEX
  8
0
 10
188.801
 20
76.0906
 30
0.0
 40
0.5
 41
0.5
  0
VERTEX
  8
0
 10
187.337
 20
76.0906
 30
0.0
 40
0.5
 41
0.5
  0
VERTEX
  8
0
 10
188.354
 20
77.3416
 30
0.0
 40
0.5
 41
0.5
  0
SEQEND
  8
0
  0
POLYLINE
8
0
 62
     0
 66
     1
 10
0
 20
0
 30
0.0
 70
     1
 40
0.5
 41
0.5
  0
VERTEX
  8
0
 10
190.407
 20
78.7126
 30
0.0
 40
0.5
 41
0.5
  0
VERTEX
  8
0
 10
190.407
 20
76.0906
 30
0.0
 40
0.5
 41
0.5
  0
VERTEX
  8
0
 10
190.146
 20
76.0906
 30
0.0
 40
0.5
 41
0.5
  0
VERTEX
  8
0
 10
190.146
 20
76.3276
 30
0.0
 40
0.5
 41
0.5
  0
VERTEX
  8
0
 10
190.047
 20
76.197
 30
0.0
 40
0.5
 41
0.5
  0
VERTEX
  8
0
 10
189.939
 20
76.1116
 30
0.0
 40
0.5
 41
0.5
  0
VERTEX
  8
0
 10
189.795
 20
76.0576
 30
0.0
 40
0.5
 41
0.5
  0
VERTEX
  8
0
 10
189.675
 20
76.0425
 30
0.0
 40
0.5
 41
0.5
  0
VERTEX
  8
0
 10
189.657
 20
76.0425
 30
0.0
 40
0.5
 41
0.5
  0
VERTEX
  8
0
 10
189.639
 20
76.0425
 30
0.0
 40
0.5
 41
0.5
  0
VERTEX
  8
0
 10
189.225
 20
76.1851
 30
0.0
 40
0.5
 41
0.5
  0
VERTEX
  8
0
 10
189.012
 20
76.5076
 30
0.0
 40
0.5
 41
0.5
  0
VERTEX
  8
0
 10
188.978
 20
76.644
 30
0.0
 40
0.5
 41
0.5
  0
VERTEX
  8
0
 10
188.967
 20
76.7715
 30
0.0
 40
0.5
 41
0.5
  0
VERTEX
  8
0
 10
189.161
 20
77.3401
 30
0.0
 40
0.5
 41
0.5
  0
VERTEX
  8
0
 10
189.588
 20
77.5486
 30
0.0
 40
0.5
 41
0.5
  0
VERTEX
  8
0
 10
189.62
 20
77.5515
 30
0.0
 40
0.5
 41
0.5
  0
VERTEX
  8
0
 10
189.651
 20
77.5515
 30
0.0
 40
0.5
 41
0.5
  0
VERTEX
  8
0
 10
189.726
 20
77.5471
 30
0.0
 40
0.5
 41
0.5
  0
VERTEX
  8
0
 10
189.804
 20
77.5334
 30
0.0
 40
0.5
 41
0.5
  0
VERTEX
  8
0
 10
189.986
 20
77.4526
 30
0.0
 40
0.5
 41
0.5
  0
VERTEX
  8
0
 10
190.125
 20
77.2935
 30
0.0
 40
0.5
 41
0.5
  0
VERTEX
  8
0
 10
190.125
 20
78.7126
 30
0.0
 40
0.5
 41
0.5
  0
VERTEX
  8
0
 10
190.407
 20
78.7126
 30
0.0
 40
0.5
 41
0.5
  0
SEQEND
  8
0
  0
POLYLINE
8
0
 62
     0
 66
     1
 10
0
 20
0
 30
0.0
 70
     1
 40
0.5
 41
0.5
  0
VERTEX
  8
0
 10
190.125
 20
76.8225
 30
0.0
 40
0.5
 41
0.5
  0
VERTEX
  8
0
 10
190.019
 20
77.1826
 30
0.0
 40
0.5
 41
0.5
  0
VERTEX
  8
0
 10
189.699
 20
77.3145
 30
0.0
 40
0.5
 41
0.5
  0
VERTEX
  8
0
 10
189.395
 20
77.187
 30
0.0
 40
0.5
 41
0.5
  0
VERTEX
  8
0
 10
189.261
 20
76.9065
 30
0.0
 40
0.5
 41
0.5
  0
VERTEX
  8
0
 10
189.252
 20
76.8391
 30
0.0
 40
0.5
 41
0.5
  0
VERTEX
  8
0
 10
189.249
 20
76.7715
 30
0.0
 40
0.5
 41
0.5
  0
VERTEX
  8
0
 10
189.258
 20
76.677
 30
0.0
 40
0.5
 41
0.5
  0
VERTEX
  8
0
 10
189.288
 20
76.5706
 30
0.0
 40
0.5
 41
0.5
  0
VERTEX
  8
0
 10
189.425
 20
76.3679
 30
0.0
 40
0.5
 41
0.5
  0
VERTEX
  8
0
 10
189.699
 20
76.2766
 30
0.0
 40
0.5
 41
0.5
  0
VERTEX
  8
0
 10
189.995
 20
76.4041
 30
0.0
 40
0.5
 41
0.5
  0
VERTEX
  8
0
 10
190.113
 20
76.6846
 30
0.0
 40
0.5
 41
0.5
  0
VERTEX
  8
0
 10
190.122
 20
76.752
 30
0.0
 40
0.5
 41
0.5
  0
VERTEX
  8
0
 10
190.125
 20
76.8196
 30
0.0
 40
0.5
 41
0.5
  0
VERTEX
  8
0
 10
190.125
 20
76.8225
 30
0.0
 40
0.5
 41
0.5
  0
SEQEND
  8
0
  0
POLYLINE
8
0
 62
     0
 66
     1
 10
0
 20
0
 30
0.0
 70
     1
 40
0.5
 41
0.5
  0
VERTEX
  8
0
 10
191.045
 20
78.3345
 30
0.0
 40
0.5
 41
0.5
  0
VERTEX
  8
0
 10
191.158
 20
78.3315
 30
0.0
 40
0.5
 41
0.5
  0
VERTEX
  8
0
 10
191.277
 20
78.3254
 30
0.0
 40
0.5
 41
0.5
  0
VERTEX
  8
0
 10
191.69
 20
78.2175
 30
0.0
 40
0.5
 41
0.5
  0
VERTEX
  8
0
 10
191.895
 20
77.8125
 30
0.0
 40
0.5
 41
0.5
  0
VERTEX
  8
0
 10
191.824
 20
77.4929
 30
0.0
 40
0.5
 41
0.5
  0
VERTEX
  8
0
 10
191.613
 20
77.3145
 30
0.0
 40
0.5
 41
0.5
  0
VERTEX
  8
0
 10
191.646
 20
77.3115
 30
0.0
 40
0.5
 41
0.5
  0
VERTEX
  8
0
 10
191.678
 20
77.3025
 30
0.0
 40
0.5
 41
0.5
  0
VERTEX
  8
0
 10
191.974
 20
77.1016
 30
0.0
 40
0.5
 41
0.5
  0
VERTEX
  8
0
 10
192.107
 20
76.7026
 30
0.0
 40
0.5
 41
0.5
  0
VERTEX
  8
0
 10
191.872
 20
76.2466
 30
0.0
 40
0.5
 41
0.5
  0
VERTEX
  8
0
 10
191.28
 20
76.0906
 30
0.0
 40
0.5
 41
0.5
  0
VERTEX
  8
0
 10
190.76
 20
76.0906
 30
0.0
 40
0.5
 41
0.5
  0
VERTEX
  8
0
 10
190.76
 20
78.3345
 30
0.0
 40
0.5
 41
0.5
  0
VERTEX
  8
0
 10
191.045
 20
78.3345
 30
0.0
 40
0.5
 41
0.5
  0
SEQEND
  8
0
  0
POLYLINE
8
0
 62
     0
 66
     1
 10
0
 20
0
 30
0.0
 70
     1
 40
0.5
 41
0.5
  0
VERTEX
  8
0
 10
191.066
 20
77.1526
 30
0.0
 40
0.5
 41
0.5
  0
VERTEX
  8
0
 10
191.066
 20
76.3276
 30
0.0
 40
0.5
 41
0.5
  0
VERTEX
  8
0
 10
191.154
 20
76.3171
 30
0.0
 40
0.5
 41
0.5
  0
VERTEX
  8
0
 10
191.235
 20
76.3125
 30
0.0
 40
0.5
 41
0.5
  0
VERTEX
  8
0
 10
191.567
 20
76.377
 30
0.0
 40
0.5
 41
0.5
  0
VERTEX
  8
0
 10
191.744
 20
76.5195
 30
0.0
 40
0.5
 41
0.5
  0
VERTEX
  8
0
 10
191.788
 20
76.6064
 30
0.0
 40
0.5
 41
0.5
  0
VERTEX
  8
0
 10
191.802
 20
76.6785
 30
0.0
 40
0.5
 41
0.5
  0
VERTEX
  8
0
 10
191.802
 20
76.6965
 30
0.0
 40
0.5
 41
0.5
  0
VERTEX
  8
0
 10
191.802
 20
76.7175
 30
0.0
 40
0.5
 41
0.5
  0
VERTEX
  8
0
 10
191.623
 20
77.0476
 30
0.0
 40
0.5
 41
0.5
  0
VERTEX
  8
0
 10
191.066
 20
77.1497
 30
0.0
 40
0.5
 41
0.5
  0
VERTEX
  8
0
 10
191.066
 20
77.1526
 30
0.0
 40
0.5
 41
0.5
  0
SEQEND
  8
0
  0
POLYLINE
8
0
 62
     0
 66
     1
 10
0
 20
0
 30
0.0
 70
     1
 40
0.5
 41
0.5
  0
VERTEX
  8
0
 10
191.066
 20
78.1216
 30
0.0
 40
0.5
 41
0.5
  0
VERTEX
  8
0
 10
191.066
 20
77.3655
 30
0.0
 40
0.5
 41
0.5
  0
VERTEX
  8
0
 10
191.116
 20
77.3596
 30
0.0
 40
0.5
 41
0.5
  0
VERTEX
  8
0
 10
191.166
 20
77.3596
 30
0.0
 40
0.5
 41
0.5
  0
VERTEX
  8
0
 10
191.499
 20
77.4421
 30
0.0
 40
0.5
 41
0.5
  0
VERTEX
  8
0
 10
191.613
 20
77.7166
 30
0.0
 40
0.5
 41
0.5
  0
VERTEX
  8
0
 10
191.613
 20
77.7241
 30
0.0
 40
0.5
 41
0.5
  0
VERTEX
  8
0
 10
191.613
 20
77.7314
 30
0.0
 40
0.5
 41
0.5
  0
VERTEX
  8
0
 10
191.611
 20
77.7991
 30
0.0
 40
0.5
 41
0.5
  0
VERTEX
  8
0
 10
191.601
 20
77.8755
 30
0.0
 40
0.5
 41
0.5
  0
VERTEX
  8
0
 10
191.482
 20
78.0435
 30
0.0
 40
0.5
 41
0.5
  0
VERTEX
  8
0
 10
191.135
 20
78.1187
 30
0.0
 40
0.5
 41
0.5
  0
VERTEX
  8
0
 10
191.103
 20
78.1187
 30
0.0
 40
0.5
 41
0.5
  0
VERTEX
  8
0
 10
191.066
 20
78.1187
 30
0.0
 40
0.5
 41
0.5
  0
VERTEX
  8
0
 10
191.066
 20
78.1216
 30
0.0
 40
0.5
 41
0.5
  0
SEQEND
  8
0
  0
POLYLINE
8
0
 62
     0
 66
     1
 10
0
 20
0
 30
0.0
 70
     1
 40
0.5
 41
0.5
  0
VERTEX
  8
0
 10
110.852
 20
81.4949
 30
0.0
 40
0.5
 41
0.5
  0
VERTEX
  8
0
 10
110.916
 20
81.553
 30
0.0
 40
0.5
 41
0.5
  0
VERTEX
  8
0
 10
110.98
 20
81.6108
 30
0.0
 40
0.5
 41
0.5
  0
VERTEX
  8
0
 10
111.248
 20
81.7769
 30
0.0
 40
0.5
 41
0.5
  0
VERTEX
  8
0
 10
111.576
 20
81.835
 30
0.0
 40
0.5
 41
0.5
  0
VERTEX
  8
0
 10
111.622
 20
81.833
 30
0.0
 40
0.5
 41
0.5
  0
VERTEX
  8
0
 10
111.668
 20
81.8311
 30
0.0
 40
0.5
 41
0.5
  0
VERTEX
  8
0
 10
112.19
 20
81.5369
 30
0.0
 40
0.5
 41
0.5
  0
VERTEX
  8
0
 10
112.428
 20
80.7949
 30
0.0
 40
0.5
 41
0.5
  0
VERTEX
  8
0
 10
112.176
 20
80.125
 30
0.0
 40
0.5
 41
0.5
  0
VERTEX
  8
0
 10
111.544
 20
79.855
 30
0.0
 40
0.5
 41
0.5
  0
VERTEX
  8
0
 10
111.154
 20
79.9329
 30
0.0
 40
0.5
 41
0.5
  0
VERTEX
  8
0
 10
110.884
 20
80.199
 30
0.0
 40
0.5
 41
0.5
  0
VERTEX
  8
0
 10
110.884
 20
78.8469
 30
0.0
 40
0.5
 41
0.5
  0
VERTEX
  8
0
 10
110.504
 20
78.8469
 30
0.0
 40
0.5
 41
0.5
  0
VERTEX
  8
0
 10
110.504
 20
81.7791
 30
0.0
 40
0.5
 41
0.5
  0
VERTEX
  8
0
 10
110.852
 20
81.7791
 30
0.0
 40
0.5
 41
0.5
  0
VERTEX
  8
0
 10
110.852
 20
81.4949
 30
0.0
 40
0.5
 41
0.5
  0
SEQEND
  8
0
  0
POLYLINE
8
0
 62
     0
 66
     1
 10
0
 20
0
 30
0.0
 70
     1
 40
0.5
 41
0.5
  0
VERTEX
  8
0
 10
112.048
 20
80.863
 30
0.0
 40
0.5
 41
0.5
  0
VERTEX
  8
0
 10
111.864
 20
81.345
 30
0.0
 40
0.5
 41
0.5
  0
VERTEX
  8
0
 10
111.42
 20
81.5229
 30
0.0
 40
0.5
 41
0.5
  0
VERTEX
  8
0
 10
111.03
 20
81.3569
 30
0.0
 40
0.5
 41
0.5
  0
VERTEX
  8
0
 10
110.852
 20
80.8589
 30
0.0
 40
0.5
 41
0.5
  0
VERTEX
  8
0
 10
110.986
 20
80.373
 30
0.0
 40
0.5
 41
0.5
  0
VERTEX
  8
0
 10
111.448
 20
80.167
 30
0.0
 40
0.5
 41
0.5
  0
VERTEX
  8
0
 10
111.884
 20
80.3608
 30
0.0
 40
0.5
 41
0.5
  0
VERTEX
  8
0
 10
112.052
 20
80.7988
 30
0.0
 40
0.5
 41
0.5
  0
VERTEX
  8
0
 10
112.052
 20
80.8149
 30
0.0
 40
0.5
 41
0.5
  0
VERTEX
  8
0
 10
112.052
 20
80.8311
 30
0.0
 40
0.5
 41
0.5
  0
VERTEX
  8
0
 10
112.048
 20
80.843
 30
0.0
 40
0.5
 41
0.5
  0
VERTEX
  8
0
 10
112.048
 20
80.8589
 30
0.0
 40
0.5
 41
0.5
  0
VERTEX
  8
0
 10
112.048
 20
80.863
 30
0.0
 40
0.5
 41
0.5
  0
SEQEND
  8
0
  0
POLYLINE
8
0
 62
     0
 66
     1
 10
0
 20
0
 30
0.0
 70
     1
 40
0.5
 41
0.5
  0
VERTEX
  8
0
 10
112.647
 20
80.895
 30
0.0
 40
0.5
 41
0.5
  0
VERTEX
  8
0
 10
112.649
 20
80.9648
 30
0.0
 40
0.5
 41
0.5
  0
VERTEX
  8
0
 10
112.659
 20
81.043
 30
0.0
 40
0.5
 41
0.5
  0
VERTEX
  8
0
 10
112.949
 20
81.5869
 30
0.0
 40
0.5
 41
0.5
  0
VERTEX
  8
0
 10
113.655
 20
81.835
 30
0.0
 40
0.5
 41
0.5
  0
VERTEX
  8
0
 10
113.825
 20
81.823
 30
0.0
 40
0.5
 41
0.5
  0
VERTEX
  8
0
 10
114.011
 20
81.783
 30
0.0
 40
0.5
 41
0.5
  0
VERTEX
  8
0
 10
114.447
 20
81.519
 30
0.0
 40
0.5
 41
0.5
  0
VERTEX
  8
0
 10
114.663
 20
80.9548
 30
0.0
 40
0.5
 41
0.5
  0
VERTEX
  8
0
 10
114.663
 20
80.9429
 30
0.0
 40
0.5
 41
0.5
  0
VERTEX
  8
0
 10
114.663
 20
80.9309
 30
0.0
 40
0.5
 41
0.5
  0
VERTEX
  8
0
 10
114.663
 20
80.917
 30
0.0
 40
0.5
 41
0.5
  0
VERTEX
  8
0
 10
114.663
 20
80.9028
 30
0.0
 40
0.5
 41
0.5
  0
VERTEX
  8
0
 10
114.657
 20
80.803
 30
0.0
 40
0.5
 41
0.5
  0
VERTEX
  8
0
 10
114.643
 20
80.7029
 30
0.0
 40
0.5
 41
0.5
  0
VERTEX
  8
0
 10
114.331
 20
80.1409
 30
0.0
 40
0.5
 41
0.5
  0
VERTEX
  8
0
 10
113.655
 20
79.887
 30
0.0
 40
0.5
 41
0.5
  0
VERTEX
  8
0
 10
112.991
 20
80.075
 30
0.0
 40
0.5
 41
0.5
  0
VERTEX
  8
0
 10
112.707
 20
80.491
 30
0.0
 40
0.5
 41
0.5
  0
VERTEX
  8
0
 10
112.659
 20
80.7029
 30
0.0
 40
0.5
 41
0.5
  0
VERTEX
  8
0
 10
112.647
 20
80.8909
 30
0.0
 40
0.5
 41
0.5
  0
VERTEX
  8
0
 10
112.647
 20
80.895
 30
0.0
 40
0.5
 41
0.5
  0
SEQEND
  8
0
  0
POLYLINE
8
0
 62
     0
 66
     1
 10
0
 20
0
 30
0.0
 70
     1
 40
0.5
 41
0.5
  0
VERTEX
  8
0
 10
114.283
 20
80.927
 30
0.0
 40
0.5
 41
0.5
  0
VERTEX
  8
0
 10
114.267
 20
81.0029
 30
0.0
 40
0.5
 41
0.5
  0
VERTEX
  8
0
 10
114.187
 20
81.207
 30
0.0
 40
0.5
 41
0.5
  0
VERTEX
  8
0
 10
113.997
 20
81.4028
 30
0.0
 40
0.5
 41
0.5
  0
VERTEX
  8
0
 10
113.655
 20
81.491
 30
0.0
 40
0.5
 41
0.5
  0
VERTEX
  8
0
 10
113.161
 20
81.293
 30
0.0
 40
0.5
 41
0.5
  0
VERTEX
  8
0
 10
113.023
 20
80.8589
 30
0.0
 40
0.5
 41
0.5
  0
VERTEX
  8
0
 10
113.197
 20
80.439
 30
0.0
 40
0.5
 41
0.5
  0
VERTEX
  8
0
 10
113.531
 20
80.251
 30
0.0
 40
0.5
 41
0.5
  0
VERTEX
  8
0
 10
113.607
 20
80.2349
 30
0.0
 40
0.5
 41
0.5
  0
VERTEX
  8
0
 10
113.683
 20
80.231
 30
0.0
 40
0.5
 41
0.5
  0
VERTEX
  8
0
 10
114.093
 20
80.407
 30
0.0
 40
0.5
 41
0.5
  0
VERTEX
  8
0
 10
114.283
 20
80.7949
 30
0.0
 40
0.5
 41
0.5
  0
VERTEX
  8
0
 10
114.285
 20
80.833
 30
0.0
 40
0.5
 41
0.5
  0
VERTEX
  8
0
 10
114.287
 20
80.8669
 30
0.0
 40
0.5
 41
0.5
  0
VERTEX
  8
0
 10
114.287
 20
80.8809
 30
0.0
 40
0.5
 41
0.5
  0
VERTEX
  8
0
 10
114.287
 20
80.895
 30
0.0
 40
0.5
 41
0.5
  0
VERTEX
  8
0
 10
114.283
 20
80.9089
 30
0.0
 40
0.5
 41
0.5
  0
VERTEX
  8
0
 10
114.283
 20
80.9229
 30
0.0
 40
0.5
 41
0.5
  0
VERTEX
  8
0
 10
114.283
 20
80.927
 30
0.0
 40
0.5
 41
0.5
  0
SEQEND
  8
0
  0
POLYLINE
8
0
 62
     0
 66
     1
 10
0
 20
0
 30
0.0
 70
     1
 40
0.5
 41
0.5
  0
VERTEX
  8
0
 10
115.072
 20
81.7791
 30
0.0
 40
0.5
 41
0.5
  0
VERTEX
  8
0
 10
115.604
 20
80.5789
 30
0.0
 40
0.5
 41
0.5
  0
VERTEX
  8
0
 10
116.171
 20
81.8389
 30
0.0
 40
0.5
 41
0.5
  0
VERTEX
  8
0
 10
116.708
 20
80.6108
 30
0.0
 40
0.5
 41
0.5
  0
VERTEX
  8
0
 10
117.243
 20
81.7791
 30
0.0
 40
0.5
 41
0.5
  0
VERTEX
  8
0
 10
117.652
 20
81.7791
 30
0.0
 40
0.5
 41
0.5
  0
VERTEX
  8
0
 10
116.968
 20
80.427
 30
0.0
 40
0.5
 41
0.5
  0
VERTEX
  8
0
 10
116.708
 20
79.887
 30
0.0
 40
0.5
 41
0.5
  0
VERTEX
  8
0
 10
116.139
 20
81.083
 30
0.0
 40
0.5
 41
0.5
  0
VERTEX
  8
0
 10
115.604
 20
79.887
 30
0.0
 40
0.5
 41
0.5
  0
VERTEX
  8
0
 10
114.659
 20
81.7791
 30
0.0
 40
0.5
 41
0.5
  0
VERTEX
  8
0
 10
115.072
 20
81.7791
 30
0.0
 40
0.5
 41
0.5
  0
SEQEND
  8
0
  0
POLYLINE
8
0
 62
     0
 66
     1
 10
0
 20
0
 30
0.0
 70
     1
 40
0.5
 41
0.5
  0
VERTEX
  8
0
 10
119.161
 20
80.5469
 30
0.0
 40
0.5
 41
0.5
  0
VERTEX
  8
0
 10
119.473
 20
80.3909
 30
0.0
 40
0.5
 41
0.5
  0
VERTEX
  8
0
 10
119.427
 20
80.3069
 30
0.0
 40
0.5
 41
0.5
  0
VERTEX
  8
0
 10
119.373
 20
80.2229
 30
0.0
 40
0.5
 41
0.5
  0
VERTEX
  8
0
 10
119.097
 20
79.969
 30
0.0
 40
0.5
 41
0.5
  0
VERTEX
  8
0
 10
118.593
 20
79.855
 30
0.0
 40
0.5
 41
0.5
  0
VERTEX
  8
0
 10
117.979
 20
80.1389
 30
0.0
 40
0.5
 41
0.5
  0
VERTEX
  8
0
 10
117.713
 20
80.7668
 30
0.0
 40
0.5
 41
0.5
  0
VERTEX
  8
0
 10
117.711
 20
80.8149
 30
0.0
 40
0.5
 41
0.5
  0
VERTEX
  8
0
 10
117.709
 20
80.863
 30
0.0
 40
0.5
 41
0.5
  0
VERTEX
  8
0
 10
117.709
 20
80.8928
 30
0.0
 40
0.5
 41
0.5
  0
VERTEX
  8
0
 10
117.709
 20
80.9229
 30
0.0
 40
0.5
 41
0.5
  0
VERTEX
  8
0
 10
117.955
 20
81.6008
 30
0.0
 40
0.5
 41
0.5
  0
VERTEX
  8
0
 10
118.625
 20
81.8989
 30
0.0
 40
0.5
 41
0.5
  0
VERTEX
  8
0
 10
119.207
 20
81.6809
 30
0.0
 40
0.5
 41
0.5
  0
VERTEX
  8
0
 10
119.469
 20
81.2029
 30
0.0
 40
0.5
 41
0.5
  0
VERTEX
  8
0
 10
119.499
 20
81.041
 30
0.0
 40
0.5
 41
0.5
  0
VERTEX
  8
0
 10
119.509
 20
80.887
 30
0.0
 40
0.5
 41
0.5
  0
VERTEX
  8
0
 10
119.509
 20
80.8389
 30
0.0
 40
0.5
 41
0.5
  0
VERTEX
  8
0
 10
119.505
 20
80.7949
 30
0.0
 40
0.5
 41
0.5
  0
VERTEX
  8
0
 10
118.089
 20
80.7988
 30
0.0
 40
0.5
 41
0.5
  0
VERTEX
  8
0
 10
118.255
 20
80.3689
 30
0.0
 40
0.5
 41
0.5
  0
VERTEX
  8
0
 10
118.657
 20
80.199
 30
0.0
 40
0.5
 41
0.5
  0
VERTEX
  8
0
 10
118.715
 20
80.2029
 30
0.0
 40
0.5
 41
0.5
  0
VERTEX
  8
0
 10
118.777
 20
80.2148
 30
0.0
 40
0.5
 41
0.5
  0
VERTEX
  8
0
 10
118.999
 20
80.3269
 30
0.0
 40
0.5
 41
0.5
  0
VERTEX
  8
0
 10
119.161
 20
80.543
 30
0.0
 40
0.5
 41
0.5
  0
VERTEX
  8
0
 10
119.161
 20
80.5469
 30
0.0
 40
0.5
 41
0.5
  0
SEQEND
  8
0
  0
POLYLINE
8
0
 62
     0
 66
     1
 10
0
 20
0
 30
0.0
 70
     1
 40
0.5
 41
0.5
  0
VERTEX
  8
0
 10
119.129
 20
81.083
 30
0.0
 40
0.5
 41
0.5
  0
VERTEX
  8
0
 10
118.971
 20
81.437
 30
0.0
 40
0.5
 41
0.5
  0
VERTEX
  8
0
 10
118.625
 20
81.583
 30
0.0
 40
0.5
 41
0.5
  0
VERTEX
  8
0
 10
118.533
 20
81.573
 30
0.0
 40
0.5
 41
0.5
  0
VERTEX
  8
0
 10
118.437
 20
81.543
 30
0.0
 40
0.5
 41
0.5
  0
VERTEX
  8
0
 10
118.221
 20
81.3889
 30
0.0
 40
0.5
 41
0.5
  0
VERTEX
  8
0
 10
118.089
 20
81.0789
 30
0.0
 40
0.5
 41
0.5
  0
VERTEX
  8
0
 10
119.129
 20
81.083
 30
0.0
 40
0.5
 41
0.5
  0
SEQEND
  8
0
  0
POLYLINE
8
0
 62
     0
 66
     1
 10
0
 20
0
 30
0.0
 70
     1
 40
0.5
 41
0.5
  0
VERTEX
  8
0
 10
120.166
 20
81.4949
 30
0.0
 40
0.5
 41
0.5
  0
VERTEX
  8
0
 10
120.406
 20
81.7329
 30
0.0
 40
0.5
 41
0.5
  0
VERTEX
  8
0
 10
120.674
 20
81.811
 30
0.0
 40
0.5
 41
0.5
  0
VERTEX
  8
0
 10
120.828
 20
81.793
 30
0.0
 40
0.5
 41
0.5
  0
VERTEX
  8
0
 10
120.986
 20
81.7429
 30
0.0
 40
0.5
 41
0.5
  0
VERTEX
  8
0
 10
120.798
 20
81.3989
 30
0.0
 40
0.5
 41
0.5
  0
VERTEX
  8
0
 10
120.72
 20
81.4409
 30
0.0
 40
0.5
 41
0.5
  0
VERTEX
  8
0
 10
120.638
 20
81.4709
 30
0.0
 40
0.5
 41
0.5
  0
VERTEX
  8
0
 10
120.598
 20
81.4771
 30
0.0
 40
0.5
 41
0.5
  0
VERTEX
  8
0
 10
120.558
 20
81.479
 30
0.0
 40
0.5
 41
0.5
  0
VERTEX
  8
0
 10
120.3
 20
81.3669
 30
0.0
 40
0.5
 41
0.5
  0
VERTEX
  8
0
 10
120.166
 20
81.019
 30
0.0
 40
0.5
 41
0.5
  0
VERTEX
  8
0
 10
120.166
 20
79.9189
 30
0.0
 40
0.5
 41
0.5
  0
VERTEX
  8
0
 10
119.79
 20
79.9189
 30
0.0
 40
0.5
 41
0.5
  0
VERTEX
  8
0
 10
119.79
 20
81.7791
 30
0.0
 40
0.5
 41
0.5
  0
VERTEX
  8
0
 10
120.166
 20
81.7791
 30
0.0
 40
0.5
 41
0.5
  0
VERTEX
  8
0
 10
120.166
 20
81.4949
 30
0.0
 40
0.5
 41
0.5
  0
SEQEND
  8
0
  0
POLYLINE
8
0
 62
     0
 66
     1
 10
0
 20
0
 30
0.0
 70
     1
 40
0.5
 41
0.5
  0
VERTEX
  8
0
 10
177.286
 20
97.3967
 30
0.0
 40
0.5
 41
0.5
  0
VERTEX
  8
0
 10
177.286
 20
96.9248
 30
0.0
 40
0.5
 41
0.5
  0
VERTEX
  8
0
 10
177.052
 20
96.8408
 30
0.0
 40
0.5
 41
0.5
  0
VERTEX
  8
0
 10
176.798
 20
96.8127
 30
0.0
 40
0.5
 41
0.5
  0
VERTEX
  8
0
 10
176.766
 20
96.8127
 30
0.0
 40
0.5
 41
0.5
  0
VERTEX
  8
0
 10
176.734
 20
96.8127
 30
0.0
 40
0.5
 41
0.5
  0
VERTEX
  8
0
 10
176.074
 20
97.0728
 30
0.0
 40
0.5
 41
0.5
  0
VERTEX
  8
0
 10
175.774
 20
97.8008
 30
0.0
 40
0.5
 41
0.5
  0
VERTEX
  8
0
 10
176.08
 20
98.5808
 30
0.0
 40
0.5
 41
0.5
  0
VERTEX
  8
0
 10
176.774
 20
98.8367
 30
0.0
 40
0.5
 41
0.5
  0
VERTEX
  8
0
 10
177.05
 20
98.8088
 30
0.0
 40
0.5
 41
0.5
  0
VERTEX
  8
0
 10
177.314
 20
98.7168
 30
0.0
 40
0.5
 41
0.5
  0
VERTEX
  8
0
 10
177.314
 20
98.2488
 30
0.0
 40
0.5
 41
0.5
  0
VERTEX
  8
0
 10
177.212
 20
98.3508
 30
0.0
 40
0.5
 41
0.5
  0
VERTEX
  8
0
 10
177.106
 20
98.4209
 30
0.0
 40
0.5
 41
0.5
  0
VERTEX
  8
0
 10
176.896
 20
98.4868
 30
0.0
 40
0.5
 41
0.5
  0
VERTEX
  8
0
 10
176.75
 20
98.4968
 30
0.0
 40
0.5
 41
0.5
  0
VERTEX
  8
0
 10
176.292
 20
98.2708
 30
0.0
 40
0.5
 41
0.5
  0
VERTEX
  8
0
 10
176.134
 20
97.8328
 30
0.0
 40
0.5
 41
0.5
  0
VERTEX
  8
0
 10
176.134
 20
97.8267
 30
0.0
 40
0.5
 41
0.5
  0
VERTEX
  8
0
 10
176.134
 20
97.8208
 30
0.0
 40
0.5
 41
0.5
  0
VERTEX
  8
0
 10
176.284
 20
97.3748
 30
0.0
 40
0.5
 41
0.5
  0
VERTEX
  8
0
 10
176.722
 20
97.1729
 30
0.0
 40
0.5
 41
0.5
  0
VERTEX
  8
0
 10
176.736
 20
97.1729
 30
0.0
 40
0.5
 41
0.5
  0
VERTEX
  8
0
 10
176.75
 20
97.1729
 30
0.0
 40
0.5
 41
0.5
  0
VERTEX
  8
0
 10
176.92
 20
97.1907
 30
0.0
 40
0.5
 41
0.5
  0
VERTEX
  8
0
 10
177.198
 20
97.3208
 30
0.0
 40
0.5
 41
0.5
  0
VERTEX
  8
0
 10
177.244
 20
97.3547
 30
0.0
 40
0.5
 41
0.5
  0
VERTEX
  8
0
 10
177.286
 20
97.3928
 30
0.0
 40
0.5
 41
0.5
  0
VERTEX
  8
0
 10
177.286
 20
97.3967
 30
0.0
 40
0.5
 41
0.5
  0
SEQEND
  8
0
  0
POLYLINE
8
0
 62
     0
 66
     1
 10
0
 20
0
 30
0.0
 70
     1
 40
0.5
 41
0.5
  0
VERTEX
  8
0
 10
178.011
 20
100.357
 30
0.0
 40
0.5
 41
0.5
  0
VERTEX
  8
0
 10
178.011
 20
98.5288
 30
0.0
 40
0.5
 41
0.5
  0
VERTEX
  8
0
 10
178.257
 20
98.7549
 30
0.0
 40
0.5
 41
0.5
  0
VERTEX
  8
0
 10
178.575
 20
98.8408
 30
0.0
 40
0.5
 41
0.5
  0
VERTEX
  8
0
 10
179.049
 20
98.6926
 30
0.0
 40
0.5
 41
0.5
  0
VERTEX
  8
0
 10
179.239
 20
98.1169
 30
0.0
 40
0.5
 41
0.5
  0
VERTEX
  8
0
 10
179.239
 20
96.8928
 30
0.0
 40
0.5
 41
0.5
  0
VERTEX
  8
0
 10
178.891
 20
96.8928
 30
0.0
 40
0.5
 41
0.5
  0
VERTEX
  8
0
 10
178.891
 20
98.1208
 30
0.0
 40
0.5
 41
0.5
  0
VERTEX
  8
0
 10
178.781
 20
98.4128
 30
0.0
 40
0.5
 41
0.5
  0
VERTEX
  8
0
 10
178.483
 20
98.4968
 30
0.0
 40
0.5
 41
0.5
  0
VERTEX
  8
0
 10
178.117
 20
98.3586
 30
0.0
 40
0.5
 41
0.5
  0
VERTEX
  8
0
 10
178.011
 20
97.9607
 30
0.0
 40
0.5
 41
0.5
  0
VERTEX
  8
0
 10
178.011
 20
96.8928
 30
0.0
 40
0.5
 41
0.5
  0
VERTEX
  8
0
 10
177.631
 20
96.8928
 30
0.0
 40
0.5
 41
0.5
  0
VERTEX
  8
0
 10
177.631
 20
100.357
 30
0.0
 40
0.5
 41
0.5
  0
VERTEX
  8
0
 10
178.011
 20
100.357
 30
0.0
 40
0.5
 41
0.5
  0
SEQEND
  8
0
  0
POLYLINE
8
0
 62
     0
 66
     1
 10
0
 20
0
 30
0.0
 70
     1
 40
0.5
 41
0.5
  0
VERTEX
  8
0
 10
180.625
 20
98.3408
 30
0.0
 40
0.5
 41
0.5
  0
VERTEX
  8
0
 10
180.625
 20
98.0247
 30
0.0
 40
0.5
 41
0.5
  0
VERTEX
  8
0
 10
179.741
 20
98.0247
 30
0.0
 40
0.5
 41
0.5
  0
VERTEX
  8
0
 10
179.741
 20
98.3408
 30
0.0
 40
0.5
 41
0.5
  0
VERTEX
  8
0
 10
180.625
 20
98.3408
 30
0.0
 40
0.5
 41
0.5
  0
SEQEND
  8
0
  0
POLYLINE
8
0
 62
     0
 66
     1
 10
0
 20
0
 30
0.0
 70
     1
 40
0.5
 41
0.5
  0
VERTEX
  8
0
 10
181.32
 20
99.5688
 30
0.0
 40
0.5
 41
0.5
  0
VERTEX
  8
0
 10
181.54
 20
99.9487
 30
0.0
 40
0.5
 41
0.5
  0
VERTEX
  8
0
 10
182.204
 20
99.9487
 30
0.0
 40
0.5
 41
0.5
  0
VERTEX
  8
0
 10
182.204
 20
96.8928
 30
0.0
 40
0.5
 41
0.5
  0
VERTEX
  8
0
 10
181.824
 20
96.8928
 30
0.0
 40
0.5
 41
0.5
  0
VERTEX
  8
0
 10
181.824
 20
99.5688
 30
0.0
 40
0.5
 41
0.5
  0
VERTEX
  8
0
 10
181.32
 20
99.5688
 30
0.0
 40
0.5
 41
0.5
  0
SEQEND
  8
0
  0
POLYLINE
8
0
 62
     0
 66
     1
 10
0
 20
0
 30
0.0
 70
     1
 40
0.5
 41
0.5
  0
VERTEX
  8
0
 10
64.7942
 20
102.827
 30
0.0
 40
0.5
 41
0.5
  0
VERTEX
  8
0
 10
81.3706
 20
102.827
 30
0.0
 40
0.5
 41
0.5
  0
VERTEX
  8
0
 10
81.3706
 20
84.2651
 30
0.0
 40
0.5
 41
0.5
  0
VERTEX
  8
0
 10
64.7942
 20
84.2651
 30
0.0
 40
0.5
 41
0.5
  0
VERTEX
  8
0
 10
64.7942
 20
102.827
 30
0.0
 40
0.5
 41
0.5
  0
SEQEND
  8
0
  0
POLYLINE
8
0
 62
     0
 66
     1
 10
0
 20
0
 30
0.0
 70
     1
 40
0.5
 41
0.5
  0
VERTEX
  8
0
 10
74.3655
 20
88.7571
 30
0.0
 40
0.5
 41
0.5
  0
VERTEX
  8
0
 10
74.0562
 20
89.1663
 30
0.0
 40
0.5
 41
0.5
  0
VERTEX
  8
0
 10
74.1738
 20
89.2949
 30
0.0
 40
0.5
 41
0.5
  0
VERTEX
  8
0
 10
74.0378
 20
89.363
 30
0.0
 40
0.5
 41
0.5
  0
VERTEX
  8
0
 10
73.791
 20
89.1572
 30
0.0
 40
0.5
 41
0.5
  0
VERTEX
  8
0
 10
74.0313
 20
89.0803
 30
0.0
 40
0.5
 41
0.5
  0
VERTEX
  8
0
 10
74.0515
 20
88.6299
 30
0.0
 40
0.5
 41
0.5
  0
VERTEX
  8
0
 10
74.2432
 20
88.7463
 30
0.0
 40
0.5
 41
0.5
  0
VERTEX
  8
0
 10
74.3655
 20
88.7571
 30
0.0
 40
0.5
 41
0.5
  0
SEQEND
  8
0
  0
POLYLINE
8
0
 62
     0
 66
     1
 10
0
 20
0
 30
0.0
 70
     1
 40
0.5
 41
0.5
  0
VERTEX
  8
0
 10
74.6655
 20
93.5779
 30
0.0
 40
0.5
 41
0.5
  0
VERTEX
  8
0
 10
74.7773
 20
93.4612
 30
0.0
 40
0.5
 41
0.5
  0
VERTEX
  8
0
 10
74.9956
 20
94.04
 30
0.0
 40
0.5
 41
0.5
  0
VERTEX
  8
0
 10
74.5986
 20
94.72
 30
0.0
 40
0.5
 41
0.5
  0
VERTEX
  8
0
 10
74.3779
 20
94.5308
 30
0.0
 40
0.5
 41
0.5
  0
VERTEX
  8
0
 10
74.5076
 20
94.5229
 30
0.0
 40
0.5
 41
0.5
  0
VERTEX
  8
0
 10
74.6746
 20
94.0105
 30
0.0
 40
0.5
 41
0.5
  0
VERTEX
  8
0
 10
74.8372
 20
93.7229
 30
0.0
 40
0.5
 41
0.5
  0
VERTEX
  8
0
 10
74.6655
 20
93.5779
 30
0.0
 40
0.5
 41
0.5
  0
SEQEND
  8
0
  0
POLYLINE
8
0
 62
     0
 66
     1
 10
0
 20
0
 30
0.0
 70
     1
 40
0.5
 41
0.5
  0
VERTEX
  8
0
 10
74.3484
 20
93.9812
 30
0.0
 40
0.5
 41
0.5
  0
VERTEX
  8
0
 10
73.8242
 20
94.0703
 30
0.0
 40
0.5
 41
0.5
  0
VERTEX
  8
0
 10
73.7659
 20
94.1907
 30
0.0
 40
0.5
 41
0.5
  0
VERTEX
  8
0
 10
73.1538
 20
94.0547
 30
0.0
 40
0.5
 41
0.5
  0
VERTEX
  8
0
 10
73.4177
 20
93.6831
 30
0.0
 40
0.5
 41
0.5
  0
VERTEX
  8
0
 10
73.8582
 20
93.6777
 30
0.0
 40
0.5
 41
0.5
  0
VERTEX
  8
0
 10
74.1772
 20
93.7581
 30
0.0
 40
0.5
 41
0.5
  0
VERTEX
  8
0
 10
74.3484
 20
93.9812
 30
0.0
 40
0.5
 41
0.5
  0
SEQEND
  8
0
  0
POLYLINE
8
0
 62
     0
 66
     1
 10
0
 20
0
 30
0.0
 70
     1
 40
0.5
 41
0.5
  0
VERTEX
  8
0
 10
72.4058
 20
93.7148
 30
0.0
 40
0.5
 41
0.5
  0
VERTEX
  8
0
 10
72.0659
 20
93.6467
 30
0.0
 40
0.5
 41
0.5
  0
VERTEX
  8
0
 10
72.2019
 20
93.0347
 30
0.0
 40
0.5
 41
0.5
  0
VERTEX
  8
0
 10
72.4058
 20
93.7148
 30
0.0
 40
0.5
 41
0.5
  0
SEQEND
  8
0
  0
POLYLINE
8
0
 62
     0
 66
     1
 10
0
 20
0
 30
0.0
 70
     1
 40
0.5
 41
0.5
  0
VERTEX
  8
0
 10
69.8164
 20
92.5681
 30
0.0
 40
0.5
 41
0.5
  0
VERTEX
  8
0
 10
69.7539
 20
92.6267
 30
0.0
 40
0.5
 41
0.5
  0
VERTEX
  8
0
 10
69.7593
 20
92.2937
 30
0.0
 40
0.5
 41
0.5
  0
VERTEX
  8
0
 10
69.8923
 20
92.3408
 30
0.0
 40
0.5
 41
0.5
  0
VERTEX
  8
0
 10
69.958
 20
92.2188
 30
0.0
 40
0.5
 41
0.5
  0
VERTEX
  8
0
 10
70.6458
 20
92.5095
 30
0.0
 40
0.5
 41
0.5
  0
VERTEX
  8
0
 10
71.3179
 20
92.5588
 30
0.0
 40
0.5
 41
0.5
  0
VERTEX
  8
0
 10
71.2642
 20
93.0728
 30
0.0
 40
0.5
 41
0.5
  0
VERTEX
  8
0
 10
71.658
 20
92.8987
 30
0.0
 40
0.5
 41
0.5
  0
VERTEX
  8
0
 10
71.7258
 20
93.5789
 30
0.0
 40
0.5
 41
0.5
  0
VERTEX
  8
0
 10
71.0339
 20
94.114
 30
0.0
 40
0.5
 41
0.5
  0
VERTEX
  8
0
 10
70.9148
 20
94.053
 30
0.0
 40
0.5
 41
0.5
  0
VERTEX
  8
0
 10
71.0989
 20
93.7827
 30
0.0
 40
0.5
 41
0.5
  0
VERTEX
  8
0
 10
70.9751
 20
93.6521
 30
0.0
 40
0.5
 41
0.5
  0
VERTEX
  8
0
 10
70.7771
 20
93.7749
 30
0.0
 40
0.5
 41
0.5
  0
VERTEX
  8
0
 10
70.645
 20
93.665
 30
0.0
 40
0.5
 41
0.5
  0
VERTEX
  8
0
 10
70.1694
 20
93.5549
 30
0.0
 40
0.5
 41
0.5
  0
VERTEX
  8
0
 10
69.8689
 20
93.1191
 30
0.0
 40
0.5
 41
0.5
  0
VERTEX
  8
0
 10
69.8164
 20
92.5681
 30
0.0
 40
0.5
 41
0.5
  0
SEQEND
  8
0
  0
POLYLINE
8
0
 62
     0
 66
     1
 10
0
 20
0
 30
0.0
 70
     1
 40
0.5
 41
0.5
  0
VERTEX
  8
0
 10
72.22
 20
94.6516
 30
0.0
 40
0.5
 41
0.5
  0
VERTEX
  8
0
 10
72.4622
 20
94.8088
 30
0.0
 40
0.5
 41
0.5
  0
VERTEX
  8
0
 10
72.4048
 20
95.0039
 30
0.0
 40
0.5
 41
0.5
  0
VERTEX
  8
0
 10
72.0867
 20
94.9231
 30
0.0
 40
0.5
 41
0.5
  0
VERTEX
  8
0
 10
72.1855
 20
94.8792
 30
0.0
 40
0.5
 41
0.5
  0
VERTEX
  8
0
 10
71.3455
 20
94.1758
 30
0.0
 40
0.5
 41
0.5
  0
VERTEX
  8
0
 10
71.522
 20
93.9868
 30
0.0
 40
0.5
 41
0.5
  0
VERTEX
  8
0
 10
71.5266
 20
94.1211
 30
0.0
 40
0.5
 41
0.5
  0
VERTEX
  8
0
 10
71.6575
 20
94.1978
 30
0.0
 40
0.5
 41
0.5
  0
VERTEX
  8
0
 10
72.22
 20
94.6516
 30
0.0
 40
0.5
 41
0.5
  0
SEQEND
  8
0
  0
POLYLINE
8
0
 62
     0
 66
     1
 10
0
 20
0
 30
0.0
 70
     1
 40
0.5
 41
0.5
  0
VERTEX
  8
0
 10
68.9858
 20
93.6204
 30
0.0
 40
0.5
 41
0.5
  0
VERTEX
  8
0
 10
69.2505
 20
94.03
 30
0.0
 40
0.5
 41
0.5
  0
VERTEX
  8
0
 10
69.3083
 20
94.5938
 30
0.0
 40
0.5
 41
0.5
  0
VERTEX
  8
0
 10
69.6509
 20
94.6152
 30
0.0
 40
0.5
 41
0.5
  0
VERTEX
  8
0
 10
70.0623
 20
94.8733
 30
0.0
 40
0.5
 41
0.5
  0
VERTEX
  8
0
 10
70.2664
 20
95.1333
 30
0.0
 40
0.5
 41
0.5
  0
VERTEX
  8
0
 10
70.1619
 20
95.4827
 30
0.0
 40
0.5
 41
0.5
  0
VERTEX
  8
0
 10
69.958
 20
95.6187
 30
0.0
 40
0.5
 41
0.5
  0
VERTEX
  8
0
 10
70.1677
 20
96.0027
 30
0.0
 40
0.5
 41
0.5
  0
VERTEX
  8
0
 10
70.4622
 20
95.8555
 30
0.0
 40
0.5
 41
0.5
  0
VERTEX
  8
0
 10
70.4338
 20
95.4827
 30
0.0
 40
0.5
 41
0.5
  0
VERTEX
  8
0
 10
70.5698
 20
95.5505
 30
0.0
 40
0.5
 41
0.5
  0
VERTEX
  8
0
 10
70.6323
 20
95.1614
 30
0.0
 40
0.5
 41
0.5
  0
VERTEX
  8
0
 10
70.4338
 20
95.2786
 30
0.0
 40
0.5
 41
0.5
  0
VERTEX
  8
0
 10
70.8606
 20
94.2676
 30
0.0
 40
0.5
 41
0.5
  0
VERTEX
  8
0
 10
71.0459
 20
94.2588
 30
0.0
 40
0.5
 41
0.5
  0
VERTEX
  8
0
 10
71.1819
 20
94.9387
 30
0.0
 40
0.5
 41
0.5
  0
VERTEX
  8
0
 10
70.8516
 20
95.2778
 30
0.0
 40
0.5
 41
0.5
  0
VERTEX
  8
0
 10
70.9702
 20
95.3386
 30
0.0
 40
0.5
 41
0.5
  0
VERTEX
  8
0
 10
71.353
 20
95.2827
 30
0.0
 40
0.5
 41
0.5
  0
VERTEX
  8
0
 10
71.0615
 20
95.9548
 30
0.0
 40
0.5
 41
0.5
  0
VERTEX
  8
0
 10
71.386
 20
96.0947
 30
0.0
 40
0.5
 41
0.5
  0
VERTEX
  8
0
 10
71.4553
 20
96.2222
 30
0.0
 40
0.5
 41
0.5
  0
VERTEX
  8
0
 10
71.7412
 20
95.9714
 30
0.0
 40
0.5
 41
0.5
  0
VERTEX
  8
0
 10
71.9971
 20
95.6963
 30
0.0
 40
0.5
 41
0.5
  0
VERTEX
  8
0
 10
72.061
 20
95.8198
 30
0.0
 40
0.5
 41
0.5
  0
VERTEX
  8
0
 10
71.7959
 20
96.2302
 30
0.0
 40
0.5
 41
0.5
  0
VERTEX
  8
0
 10
71.8093
 20
97.0537
 30
0.0
 40
0.5
 41
0.5
  0
VERTEX
  8
0
 10
71.575
 20
96.8564
 30
0.0
 40
0.5
 41
0.5
  0
VERTEX
  8
0
 10
71.3687
 20
96.4211
 30
0.0
 40
0.5
 41
0.5
  0
VERTEX
  8
0
 10
70.7061
 20
96.9788
 30
0.0
 40
0.5
 41
0.5
  0
VERTEX
  8
0
 10
70.123
 20
96.3484
 30
0.0
 40
0.5
 41
0.5
  0
VERTEX
  8
0
 10
69.7351
 20
95.6301
 30
0.0
 40
0.5
 41
0.5
  0
VERTEX
  8
0
 10
68.6169
 20
94.1082
 30
0.0
 40
0.5
 41
0.5
  0
VERTEX
  8
0
 10
68.6138
 20
93.7908
 30
0.0
 40
0.5
 41
0.5
  0
VERTEX
  8
0
 10
68.9858
 20
93.6204
 30
0.0
 40
0.5
 41
0.5
  0
SEQEND
  8
0
  0
POLYLINE
8
0
 62
     0
 66
     1
 10
0
 20
0
 30
0.0
 70
     1
 40
0.5
 41
0.5
  0
VERTEX
  8
0
 10
72.8818
 20
97.2507
 30
0.0
 40
0.5
 41
0.5
  0
VERTEX
  8
0
 10
73.2122
 20
96.8252
 30
0.0
 40
0.5
 41
0.5
  0
VERTEX
  8
0
 10
74.3098
 20
97.0466
 30
0.0
 40
0.5
 41
0.5
  0
VERTEX
  8
0
 10
74.5286
 20
97.5146
 30
0.0
 40
0.5
 41
0.5
  0
VERTEX
  8
0
 10
74.6497
 20
97.4546
 30
0.0
 40
0.5
 41
0.5
  0
VERTEX
  8
0
 10
74.5535
 20
97.7078
 30
0.0
 40
0.5
 41
0.5
  0
VERTEX
  8
0
 10
74.1665
 20
97.8452
 30
0.0
 40
0.5
 41
0.5
  0
VERTEX
  8
0
 10
73.7659
 20
97.5906
 30
0.0
 40
0.5
 41
0.5
  0
VERTEX
  8
0
 10
73.2947
 20
97.6221
 30
0.0
 40
0.5
 41
0.5
  0
VERTEX
  8
0
 10
72.8818
 20
97.2507
 30
0.0
 40
0.5
 41
0.5
  0
SEQEND
  8
0
  0
POLYLINE
8
0
 62
     0
 66
     1
 10
0
 20
0
 30
0.0
 70
     1
 40
0.5
 41
0.5
  0
VERTEX
  8
0
 10
69.7932
 20
98.1143
 30
0.0
 40
0.5
 41
0.5
  0
VERTEX
  8
0
 10
69.4819
 20
97.3865
 30
0.0
 40
0.5
 41
0.5
  0
VERTEX
  8
0
 10
69.3474
 20
97.4514
 30
0.0
 40
0.5
 41
0.5
  0
VERTEX
  8
0
 10
69.2842
 20
97.3228
 30
0.0
 40
0.5
 41
0.5
  0
VERTEX
  8
0
 10
69.3381
 20
97.1904
 30
0.0
 40
0.5
 41
0.5
  0
VERTEX
  8
0
 10
68.8513
 20
96.8005
 30
0.0
 40
0.5
 41
0.5
  0
VERTEX
  8
0
 10
68.6868
 20
96.3066
 30
0.0
 40
0.5
 41
0.5
  0
VERTEX
  8
0
 10
69.0061
 20
96.1626
 30
0.0
 40
0.5
 41
0.5
  0
VERTEX
  8
0
 10
69.177
 20
96.8596
 30
0.0
 40
0.5
 41
0.5
  0
VERTEX
  8
0
 10
69.4521
 20
97.1707
 30
0.0
 40
0.5
 41
0.5
  0
VERTEX
  8
0
 10
69.8401
 20
97.4451
 30
0.0
 40
0.5
 41
0.5
  0
VERTEX
  8
0
 10
70.02
 20
97.4648
 30
0.0
 40
0.5
 41
0.5
  0
VERTEX
  8
0
 10
70.2502
 20
97.7075
 30
0.0
 40
0.5
 41
0.5
  0
VERTEX
  8
0
 10
70.502
 20
97.6584
 30
0.0
 40
0.5
 41
0.5
  0
VERTEX
  8
0
 10
70.5715
 20
97.79
 30
0.0
 40
0.5
 41
0.5
  0
VERTEX
  8
0
 10
70.8115
 20
97.5959
 30
0.0
 40
0.5
 41
0.5
  0
VERTEX
  8
0
 10
70.2979
 20
97.4546
 30
0.0
 40
0.5
 41
0.5
  0
VERTEX
  8
0
 10
70.3674
 20
97.322
 30
0.0
 40
0.5
 41
0.5
  0
VERTEX
  8
0
 10
70.7053
 20
97.3848
 30
0.0
 40
0.5
 41
0.5
  0
VERTEX
  8
0
 10
70.7856
 20
97.1973
 30
0.0
 40
0.5
 41
0.5
  0
VERTEX
  8
0
 10
71.0459
 20
97.2507
 30
0.0
 40
0.5
 41
0.5
  0
VERTEX
  8
0
 10
70.8501
 20
97.3171
 30
0.0
 40
0.5
 41
0.5
  0
VERTEX
  8
0
 10
70.7146
 20
97.4531
 30
0.0
 40
0.5
 41
0.5
  0
VERTEX
  8
0
 10
70.9099
 20
97.7266
 30
0.0
 40
0.5
 41
0.5
  0
VERTEX
  8
0
 10
70.783
 20
97.7957
 30
0.0
 40
0.5
 41
0.5
  0
VERTEX
  8
0
 10
71.1057
 20
98
 30
0.0
 40
0.5
 41
0.5
  0
VERTEX
  8
0
 10
71.092
 20
98.5266
 30
0.0
 40
0.5
 41
0.5
  0
VERTEX
  8
0
 10
71.3752
 20
98.7585
 30
0.0
 40
0.5
 41
0.5
  0
VERTEX
  8
0
 10
71.5962
 20
98.3987
 30
0.0
 40
0.5
 41
0.5
  0
VERTEX
  8
0
 10
71.3179
 20
97.8625
 30
0.0
 40
0.5
 41
0.5
  0
VERTEX
  8
0
 10
71.4539
 20
97.9304
 30
0.0
 40
0.5
 41
0.5
  0
VERTEX
  8
0
 10
71.5928
 20
97.7996
 30
0.0
 40
0.5
 41
0.5
  0
VERTEX
  8
0
 10
71.7188
 20
97.8643
 30
0.0
 40
0.5
 41
0.5
  0
VERTEX
  8
0
 10
71.658
 20
98.0667
 30
0.0
 40
0.5
 41
0.5
  0
VERTEX
  8
0
 10
71.9739
 20
98.1501
 30
0.0
 40
0.5
 41
0.5
  0
VERTEX
  8
0
 10
71.8855
 20
98.6179
 30
0.0
 40
0.5
 41
0.5
  0
VERTEX
  8
0
 10
71.9211
 20
99.1514
 30
0.0
 40
0.5
 41
0.5
  0
VERTEX
  8
0
 10
71.7966
 20
99.2729
 30
0.0
 40
0.5
 41
0.5
  0
VERTEX
  8
0
 10
71.5168
 20
98.9551
 30
0.0
 40
0.5
 41
0.5
  0
VERTEX
  8
0
 10
71.332
 20
99.0112
 30
0.0
 40
0.5
 41
0.5
  0
VERTEX
  8
0
 10
71.2488
 20
98.8914
 30
0.0
 40
0.5
 41
0.5
  0
VERTEX
  8
0
 10
70.978
 20
98.9504
 30
0.0
 40
0.5
 41
0.5
  0
VERTEX
  8
0
 10
70.4543
 20
98.7852
 30
0.0
 40
0.5
 41
0.5
  0
VERTEX
  8
0
 10
69.7932
 20
98.1143
 30
0.0
 40
0.5
 41
0.5
  0
SEQEND
  8
0
  0
POLYLINE
8
0
 62
     0
 66
     1
 10
0
 20
0
 30
0.0
 70
     1
 40
0.5
 41
0.5
  0
VERTEX
  8
0
 10
74.2419
 20
88.0029
 30
0.0
 40
0.5
 41
0.5
  0
VERTEX
  8
0
 10
73.9614
 20
88.3752
 30
0.0
 40
0.5
 41
0.5
  0
VERTEX
  8
0
 10
73.7732
 20
88.0725
 30
0.0
 40
0.5
 41
0.5
  0
VERTEX
  8
0
 10
73.8904
 20
87.9878
 30
0.0
 40
0.5
 41
0.5
  0
VERTEX
  8
0
 10
74.2419
 20
88.0029
 30
0.0
 40
0.5
 41
0.5
  0
SEQEND
  8
0
  0
POLYLINE
8
0
 62
     0
 66
     1
 10
0
 20
0
 30
0.0
 70
     1
 40
0.5
 41
0.5
  0
VERTEX
  8
0
 10
70.366
 20
89.2271
 30
0.0
 40
0.5
 41
0.5
  0
VERTEX
  8
0
 10
70.4946
 20
89.3787
 30
0.0
 40
0.5
 41
0.5
  0
VERTEX
  8
0
 10
70.4473
 20
89.502
 30
0.0
 40
0.5
 41
0.5
  0
VERTEX
  8
0
 10
70.5698
 20
89.7708
 30
0.0
 40
0.5
 41
0.5
  0
VERTEX
  8
0
 10
70.1089
 20
89.5356
 30
0.0
 40
0.5
 41
0.5
  0
VERTEX
  8
0
 10
70.2319
 20
89.2974
 30
0.0
 40
0.5
 41
0.5
  0
VERTEX
  8
0
 10
70.366
 20
89.2271
 30
0.0
 40
0.5
 41
0.5
  0
SEQEND
  8
0
  0
POLYLINE
8
0
 62
     0
 66
     1
 10
0
 20
0
 30
0.0
 70
     1
 40
0.5
 41
0.5
  0
VERTEX
  8
0
 10
72.7646
 20
86.1418
 30
0.0
 40
0.5
 41
0.5
  0
VERTEX
  8
0
 10
73.3831
 20
86.3213
 30
0.0
 40
0.5
 41
0.5
  0
VERTEX
  8
0
 10
73.5686
 20
86.9666
 30
0.0
 40
0.5
 41
0.5
  0
VERTEX
  8
0
 10
72.9622
 20
87.0281
 30
0.0
 40
0.5
 41
0.5
  0
VERTEX
  8
0
 10
72.5771
 20
86.5906
 30
0.0
 40
0.5
 41
0.5
  0
VERTEX
  8
0
 10
72.7646
 20
86.1418
 30
0.0
 40
0.5
 41
0.5
  0
SEQEND
  8
0
  0
POLYLINE
8
0
 62
     0
 66
     1
 10
0
 20
0
 30
0.0
 70
     1
 40
0.5
 41
0.5
  0
VERTEX
  8
0
 10
73.4302
 20
88.1091
 30
0.0
 40
0.5
 41
0.5
  0
VERTEX
  8
0
 10
73.6101
 20
88.3975
 30
0.0
 40
0.5
 41
0.5
  0
VERTEX
  8
0
 10
73.6978
 20
88.9548
 30
0.0
 40
0.5
 41
0.5
  0
VERTEX
  8
0
 10
72.8342
 20
88.8525
 30
0.0
 40
0.5
 41
0.5
  0
VERTEX
  8
0
 10
72.415
 20
88.6509
 30
0.0
 40
0.5
 41
0.5
  0
VERTEX
  8
0
 10
72.0669
 20
88.5354
 30
0.0
 40
0.5
 41
0.5
  0
VERTEX
  8
0
 10
72.0112
 20
88.3572
 30
0.0
 40
0.5
 41
0.5
  0
VERTEX
  8
0
 10
72.4846
 20
87.8755
 30
0.0
 40
0.5
 41
0.5
  0
VERTEX
  8
0
 10
72.6128
 20
87.9219
 30
0.0
 40
0.5
 41
0.5
  0
VERTEX
  8
0
 10
73.4302
 20
88.1091
 30
0.0
 40
0.5
 41
0.5
  0
SEQEND
  8
0
  0
POLYLINE
8
0
 62
     0
 66
     1
 10
0
 20
0
 30
0.0
 70
     1
 40
0.5
 41
0.5
  0
VERTEX
  8
0
 10
72.7107
 20
98.9968
 30
0.0
 40
0.5
 41
0.5
  0
VERTEX
  8
0
 10
72.8289
 20
98.4285
 30
0.0
 40
0.5
 41
0.5
  0
VERTEX
  8
0
 10
73.4148
 20
98.4346
 30
0.0
 40
0.5
 41
0.5
  0
VERTEX
  8
0
 10
73.7114
 20
98.8167
 30
0.0
 40
0.5
 41
0.5
  0
VERTEX
  8
0
 10
73.8271
 20
98.875
 30
0.0
 40
0.5
 41
0.5
  0
VERTEX
  8
0
 10
73.9883
 20
98.6843
 30
0.0
 40
0.5
 41
0.5
  0
VERTEX
  8
0
 10
74.1099
 20
98.7402
 30
0.0
 40
0.5
 41
0.5
  0
VERTEX
  8
0
 10
74.2446
 20
98.6919
 30
0.0
 40
0.5
 41
0.5
  0
VERTEX
  8
0
 10
74.5137
 20
98.8145
 30
0.0
 40
0.5
 41
0.5
  0
VERTEX
  8
0
 10
74.2703
 20
99.2534
 30
0.0
 40
0.5
 41
0.5
  0
VERTEX
  8
0
 10
73.9019
 20
99.5625
 30
0.0
 40
0.5
 41
0.5
  0
VERTEX
  8
0
 10
73.897
 20
99.4282
 30
0.0
 40
0.5
 41
0.5
  0
VERTEX
  8
0
 10
73.7742
 20
99.3667
 30
0.0
 40
0.5
 41
0.5
  0
VERTEX
  8
0
 10
73.3579
 20
99.6306
 30
0.0
 40
0.5
 41
0.5
  0
VERTEX
  8
0
 10
73.3503
 20
99.5007
 30
0.0
 40
0.5
 41
0.5
  0
VERTEX
  8
0
 10
72.7107
 20
98.9968
 30
0.0
 40
0.5
 41
0.5
  0
SEQEND
  8
0
  0
POLYLINE
8
0
 62
     0
 66
     1
 10
0
 20
0
 30
0.0
 70
     1
 40
0.5
 41
0.5
  0
VERTEX
  8
0
 10
72.5188
 20
91.0146
 30
0.0
 40
0.5
 41
0.5
  0
VERTEX
  8
0
 10
72.3433
 20
90.6563
 30
0.0
 40
0.5
 41
0.5
  0
VERTEX
  8
0
 10
72.5332
 20
90.5999
 30
0.0
 40
0.5
 41
0.5
  0
VERTEX
  8
0
 10
72.4739
 20
90.7229
 30
0.0
 40
0.5
 41
0.5
  0
VERTEX
  8
0
 10
72.6707
 20
90.8994
 30
0.0
 40
0.5
 41
0.5
  0
VERTEX
  8
0
 10
73.4089
 20
91.3411
 30
0.0
 40
0.5
 41
0.5
  0
VERTEX
  8
0
 10
73.3105
 20
91.6082
 30
0.0
 40
0.5
 41
0.5
  0
VERTEX
  8
0
 10
73.1289
 20
92.1135
 30
0.0
 40
0.5
 41
0.5
  0
VERTEX
  8
0
 10
72.4739
 20
91.9468
 30
0.0
 40
0.5
 41
0.5
  0
VERTEX
  8
0
 10
72.5427
 20
91.4028
 30
0.0
 40
0.5
 41
0.5
  0
VERTEX
  8
0
 10
72.5188
 20
91.0146
 30
0.0
 40
0.5
 41
0.5
  0
SEQEND
  8
0
  0
POLYLINE
8
0
 62
     0
 66
     1
 10
0
 20
0
 30
0.0
 70
     1
 40
0.5
 41
0.5
  0
VERTEX
  8
0
 10
69.4072
 20
90.6262
 30
0.0
 40
0.5
 41
0.5
  0
VERTEX
  8
0
 10
70.0344
 20
90.8337
 30
0.0
 40
0.5
 41
0.5
  0
VERTEX
  8
0
 10
70.9138
 20
90.605
 30
0.0
 40
0.5
 41
0.5
  0
VERTEX
  8
0
 10
71.0459
 20
90.7229
 30
0.0
 40
0.5
 41
0.5
  0
VERTEX
  8
0
 10
71.1685
 20
90.5854
 30
0.0
 40
0.5
 41
0.5
  0
VERTEX
  8
0
 10
70.9622
 20
90.2395
 30
0.0
 40
0.5
 41
0.5
  0
VERTEX
  8
0
 10
70.5698
 20
90.0427
 30
0.0
 40
0.5
 41
0.5
  0
VERTEX
  8
0
 10
70.842
 20
90.1108
 30
0.0
 40
0.5
 41
0.5
  0
VERTEX
  8
0
 10
70.9099
 20
89.9749
 30
0.0
 40
0.5
 41
0.5
  0
VERTEX
  8
0
 10
71.4534
 20
90.0408
 30
0.0
 40
0.5
 41
0.5
  0
VERTEX
  8
0
 10
71.5483
 20
89.6982
 30
0.0
 40
0.5
 41
0.5
  0
VERTEX
  8
0
 10
71.114
 20
89.6348
 30
0.0
 40
0.5
 41
0.5
  0
VERTEX
  8
0
 10
71.3179
 20
89.0229
 30
0.0
 40
0.5
 41
0.5
  0
VERTEX
  8
0
 10
72.0061
 20
89.5588
 30
0.0
 40
0.5
 41
0.5
  0
VERTEX
  8
0
 10
72.1292
 20
89.4971
 30
0.0
 40
0.5
 41
0.5
  0
VERTEX
  8
0
 10
72.1338
 20
89.363
 30
0.0
 40
0.5
 41
0.5
  0
VERTEX
  8
0
 10
72.6167
 20
89.6213
 30
0.0
 40
0.5
 41
0.5
  0
VERTEX
  8
0
 10
72.95
 20
89.363
 30
0.0
 40
0.5
 41
0.5
  0
VERTEX
  8
0
 10
72.8818
 20
89.4988
 30
0.0
 40
0.5
 41
0.5
  0
VERTEX
  8
0
 10
73.2898
 20
90.0427
 30
0.0
 40
0.5
 41
0.5
  0
VERTEX
  8
0
 10
73.4258
 20
89.8389
 30
0.0
 40
0.5
 41
0.5
  0
VERTEX
  8
0
 10
73.6157
 20
89.8274
 30
0.0
 40
0.5
 41
0.5
  0
VERTEX
  8
0
 10
74.1841
 20
89.5464
 30
0.0
 40
0.5
 41
0.5
  0
VERTEX
  8
0
 10
74.8499
 20
89.4812
 30
0.0
 40
0.5
 41
0.5
  0
VERTEX
  8
0
 10
75.0576
 20
89.2949
 30
0.0
 40
0.5
 41
0.5
  0
VERTEX
  8
0
 10
75.3293
 20
89.5505
 30
0.0
 40
0.5
 41
0.5
  0
VERTEX
  8
0
 10
75.8503
 20
89.2864
 30
0.0
 40
0.5
 41
0.5
  0
VERTEX
  8
0
 10
76.1821
 20
88.2588
 30
0.0
 40
0.5
 41
0.5
  0
VERTEX
  8
0
 10
76.1211
 20
87.116
 30
0.0
 40
0.5
 41
0.5
  0
VERTEX
  8
0
 10
76.3081
 20
86.9724
 30
0.0
 40
0.5
 41
0.5
  0
VERTEX
  8
0
 10
76.5396
 20
86.7761
 30
0.0
 40
0.5
 41
0.5
  0
VERTEX
  8
0
 10
76.4219
 20
86.7173
 30
0.0
 40
0.5
 41
0.5
  0
VERTEX
  8
0
 10
76.2844
 20
86.7739
 30
0.0
 40
0.5
 41
0.5
  0
VERTEX
  8
0
 10
76.1638
 20
86.6472
 30
0.0
 40
0.5
 41
0.5
  0
VERTEX
  8
0
 10
76.1309
 20
85.2092
 30
0.0
 40
0.5
 41
0.5
  0
VERTEX
  8
0
 10
76.0125
 20
85.1521
 30
0.0
 40
0.5
 41
0.5
  0
VERTEX
  8
0
 10
75.8711
 20
85.2717
 30
0.0
 40
0.5
 41
0.5
  0
VERTEX
  8
0
 10
75.3396
 20
85.1697
 30
0.0
 40
0.5
 41
0.5
  0
VERTEX
  8
0
 10
74.9216
 20
85.3511
 30
0.0
 40
0.5
 41
0.5
  0
VERTEX
  8
0
 10
74.5168
 20
85.1545
 30
0.0
 40
0.5
 41
0.5
  0
VERTEX
  8
0
 10
74.3779
 20
85.2834
 30
0.0
 40
0.5
 41
0.5
  0
VERTEX
  8
0
 10
74.3779
 20
85.5549
 30
0.0
 40
0.5
 41
0.5
  0
VERTEX
  8
0
 10
74.364
 20
85.2913
 30
0.0
 40
0.5
 41
0.5
  0
VERTEX
  8
0
 10
73.9697
 20
85.4189
 30
0.0
 40
0.5
 41
0.5
  0
VERTEX
  8
0
 10
72.9473
 20
85.1816
 30
0.0
 40
0.5
 41
0.5
  0
VERTEX
  8
0
 10
72.0935
 20
85.1987
 30
0.0
 40
0.5
 41
0.5
  0
VERTEX
  8
0
 10
71.1287
 20
85.3816
 30
0.0
 40
0.5
 41
0.5
  0
VERTEX
  8
0
 10
70.5947
 20
85.8989
 30
0.0
 40
0.5
 41
0.5
  0
VERTEX
  8
0
 10
70.23
 20
86.6431
 30
0.0
 40
0.5
 41
0.5
  0
VERTEX
  8
0
 10
70.2415
 20
87.1809
 30
0.0
 40
0.5
 41
0.5
  0
VERTEX
  8
0
 10
70.4919
 20
87.4648
 30
0.0
 40
0.5
 41
0.5
  0
VERTEX
  8
0
 10
70.385
 20
87.9238
 30
0.0
 40
0.5
 41
0.5
  0
VERTEX
  8
0
 10
70.842
 20
88.615
 30
0.0
 40
0.5
 41
0.5
  0
VERTEX
  8
0
 10
70.4958
 20
88.4421
 30
0.0
 40
0.5
 41
0.5
  0
VERTEX
  8
0
 10
70.2659
 20
88.6299
 30
0.0
 40
0.5
 41
0.5
  0
VERTEX
  8
0
 10
70.0972
 20
88.8455
 30
0.0
 40
0.5
 41
0.5
  0
VERTEX
  8
0
 10
69.8899
 20
88.4109
 30
0.0
 40
0.5
 41
0.5
  0
VERTEX
  8
0
 10
70.2117
 20
88.2712
 30
0.0
 40
0.5
 41
0.5
  0
VERTEX
  8
0
 10
70.0908
 20
88.1477
 30
0.0
 40
0.5
 41
0.5
  0
VERTEX
  8
0
 10
69.7522
 20
88.1987
 30
0.0
 40
0.5
 41
0.5
  0
VERTEX
  8
0
 10
69.6179
 20
88.5469
 30
0.0
 40
0.5
 41
0.5
  0
VERTEX
  8
0
 10
69.1418
 20
88.343
 30
0.0
 40
0.5
 41
0.5
  0
VERTEX
  8
0
 10
69.2749
 20
88.2734
 30
0.0
 40
0.5
 41
0.5
  0
VERTEX
  8
0
 10
69.209
 20
88.1482
 30
0.0
 40
0.5
 41
0.5
  0
VERTEX
  8
0
 10
68.5552
 20
88.2292
 30
0.0
 40
0.5
 41
0.5
  0
VERTEX
  8
0
 10
67.7449
 20
88.561
 30
0.0
 40
0.5
 41
0.5
  0
VERTEX
  8
0
 10
66.7625
 20
88.4614
 30
0.0
 40
0.5
 41
0.5
  0
VERTEX
  8
0
 10
66.4458
 20
88.7258
 30
0.0
 40
0.5
 41
0.5
  0
VERTEX
  8
0
 10
66.4592
 20
89.2214
 30
0.0
 40
0.5
 41
0.5
  0
VERTEX
  8
0
 10
66.9719
 20
89.6079
 30
0.0
 40
0.5
 41
0.5
  0
VERTEX
  8
0
 10
67.3779
 20
89.6548
 30
0.0
 40
0.5
 41
0.5
  0
VERTEX
  8
0
 10
68.0457
 20
89.936
 30
0.0
 40
0.5
 41
0.5
  0
VERTEX
  8
0
 10
68.5168
 20
90.0168
 30
0.0
 40
0.5
 41
0.5
  0
VERTEX
  8
0
 10
69.1475
 20
90.3694
 30
0.0
 40
0.5
 41
0.5
  0
VERTEX
  8
0
 10
69.4072
 20
90.6262
 30
0.0
 40
0.5
 41
0.5
  0
SEQEND
  8
0
  0
POLYLINE
8
0
 62
     0
 66
     1
 10
0
 20
0
 30
0.0
 70
     1
 40
0.5
 41
0.5
  0
VERTEX
  8
0
 10
69.4248
 20
99.8406
 30
0.0
 40
0.5
 41
0.5
  0
VERTEX
  8
0
 10
68.9492
 20
100.33
 30
0.0
 40
0.5
 41
0.5
  0
VERTEX
  8
0
 10
69.0061
 20
100.514
 30
0.0
 40
0.5
 41
0.5
  0
VERTEX
  8
0
 10
68.7883
 20
101.125
 30
0.0
 40
0.5
 41
0.5
  0
VERTEX
  8
0
 10
68.6816
 20
101.262
 30
0.0
 40
0.5
 41
0.5
  0
VERTEX
  8
0
 10
69.0112
 20
101.568
 30
0.0
 40
0.5
 41
0.5
  0
VERTEX
  8
0
 10
70.3789
 20
102.049
 30
0.0
 40
0.5
 41
0.5
  0
VERTEX
  8
0
 10
70.7266
 20
101.932
 30
0.0
 40
0.5
 41
0.5
  0
VERTEX
  8
0
 10
70.7891
 20
101.466
 30
0.0
 40
0.5
 41
0.5
  0
VERTEX
  8
0
 10
70.9028
 20
101.327
 30
0.0
 40
0.5
 41
0.5
  0
VERTEX
  8
0
 10
70.7739
 20
101.058
 30
0.0
 40
0.5
 41
0.5
  0
VERTEX
  8
0
 10
70.9099
 20
100.719
 30
0.0
 40
0.5
 41
0.5
  0
VERTEX
  8
0
 10
71.2866
 20
100.834
 30
0.0
 40
0.5
 41
0.5
  0
VERTEX
  8
0
 10
71.5491
 20
100.706
 30
0.0
 40
0.5
 41
0.5
  0
VERTEX
  8
0
 10
71.6641
 20
100.259
 30
0.0
 40
0.5
 41
0.5
  0
VERTEX
  8
0
 10
71.9316
 20
100.358
 30
0.0
 40
0.5
 41
0.5
  0
VERTEX
  8
0
 10
72.0615
 20
100.131
 30
0.0
 40
0.5
 41
0.5
  0
VERTEX
  8
0
 10
72.4739
 20
100.378
 30
0.0
 40
0.5
 41
0.5
  0
VERTEX
  8
0
 10
72.6057
 20
100.317
 30
0.0
 40
0.5
 41
0.5
  0
VERTEX
  8
0
 10
72.7385
 20
100.371
 30
0.0
 40
0.5
 41
0.5
  0
VERTEX
  8
0
 10
73.2563
 20
100.31
 30
0.0
 40
0.5
 41
0.5
  0
VERTEX
  8
0
 10
73.77
 20
100.572
 30
0.0
 40
0.5
 41
0.5
  0
VERTEX
  8
0
 10
73.9697
 20
100.514
 30
0.0
 40
0.5
 41
0.5
  0
VERTEX
  8
0
 10
75.0559
 20
100.831
 30
0.0
 40
0.5
 41
0.5
  0
VERTEX
  8
0
 10
75.1938
 20
100.514
 30
0.0
 40
0.5
 41
0.5
  0
VERTEX
  8
0
 10
75.3845
 20
100.503
 30
0.0
 40
0.5
 41
0.5
  0
VERTEX
  8
0
 10
76.0806
 20
99.9094
 30
0.0
 40
0.5
 41
0.5
  0
VERTEX
  8
0
 10
76.2561
 20
100.035
 30
0.0
 40
0.5
 41
0.5
  0
VERTEX
  8
0
 10
76.6897
 20
100.65
 30
0.0
 40
0.5
 41
0.5
  0
VERTEX
  8
0
 10
76.8298
 20
100.914
 30
0.0
 40
0.5
 41
0.5
  0
VERTEX
  8
0
 10
77.3152
 20
101.198
 30
0.0
 40
0.5
 41
0.5
  0
VERTEX
  8
0
 10
77.9106
 20
101.375
 30
0.0
 40
0.5
 41
0.5
  0
VERTEX
  8
0
 10
78.1917
 20
101.228
 30
0.0
 40
0.5
 41
0.5
  0
VERTEX
  8
0
 10
78.9954
 20
101.155
 30
0.0
 40
0.5
 41
0.5
  0
VERTEX
  8
0
 10
79.5342
 20
100.569
 30
0.0
 40
0.5
 41
0.5
  0
VERTEX
  8
0
 10
79.5547
 20
100.383
 30
0.0
 40
0.5
 41
0.5
  0
VERTEX
  8
0
 10
79.729
 20
100.173
 30
0.0
 40
0.5
 41
0.5
  0
VERTEX
  8
0
 10
79.9536
 20
99.6985
 30
0.0
 40
0.5
 41
0.5
  0
VERTEX
  8
0
 10
79.6492
 20
99.1592
 30
0.0
 40
0.5
 41
0.5
  0
VERTEX
  8
0
 10
79.334
 20
98.8298
 30
0.0
 40
0.5
 41
0.5
  0
VERTEX
  8
0
 10
79.0063
 20
98.9426
 30
0.0
 40
0.5
 41
0.5
  0
VERTEX
  8
0
 10
78.6887
 20
98.5291
 30
0.0
 40
0.5
 41
0.5
  0
VERTEX
  8
0
 10
78.9548
 20
98.1177
 30
0.0
 40
0.5
 41
0.5
  0
VERTEX
  8
0
 10
79.7478
 20
97.6458
 30
0.0
 40
0.5
 41
0.5
  0
VERTEX
  8
0
 10
79.8806
 20
97.5198
 30
0.0
 40
0.5
 41
0.5
  0
VERTEX
  8
0
 10
79.8176
 20
97.3865
 30
0.0
 40
0.5
 41
0.5
  0
VERTEX
  8
0
 10
80.4797
 20
96.905
 30
0.0
 40
0.5
 41
0.5
  0
VERTEX
  8
0
 10
80.4346
 20
96.7773
 30
0.0
 40
0.5
 41
0.5
  0
VERTEX
  8
0
 10
80.5481
 20
96.6414
 30
0.0
 40
0.5
 41
0.5
  0
VERTEX
  8
0
 10
80.2124
 20
95.8208
 30
0.0
 40
0.5
 41
0.5
  0
VERTEX
  8
0
 10
80.0896
 20
95.7546
 30
0.0
 40
0.5
 41
0.5
  0
VERTEX
  8
0
 10
80.0896
 20
95.6187
 30
0.0
 40
0.5
 41
0.5
  0
VERTEX
  8
0
 10
80.2104
 20
95.5571
 30
0.0
 40
0.5
 41
0.5
  0
VERTEX
  8
0
 10
79.8176
 20
95.4146
 30
0.0
 40
0.5
 41
0.5
  0
VERTEX
  8
0
 10
79.593
 20
94.9839
 30
0.0
 40
0.5
 41
0.5
  0
VERTEX
  8
0
 10
79.1926
 20
94.8225
 30
0.0
 40
0.5
 41
0.5
  0
VERTEX
  8
0
 10
78.3477
 20
95.0735
 30
0.0
 40
0.5
 41
0.5
  0
VERTEX
  8
0
 10
77.7195
 20
95.8279
 30
0.0
 40
0.5
 41
0.5
  0
VERTEX
  8
0
 10
77.8486
 20
96.074
 30
0.0
 40
0.5
 41
0.5
  0
VERTEX
  8
0
 10
77.9817
 20
95.7546
 30
0.0
 40
0.5
 41
0.5
  0
VERTEX
  8
0
 10
78.051
 20
96.1045
 30
0.0
 40
0.5
 41
0.5
  0
VERTEX
  8
0
 10
78.1858
 20
96.4346
 30
0.0
 40
0.5
 41
0.5
  0
VERTEX
  8
0
 10
78.0566
 20
96.5044
 30
0.0
 40
0.5
 41
0.5
  0
VERTEX
  8
0
 10
78.0344
 20
96.7612
 30
0.0
 40
0.5
 41
0.5
  0
VERTEX
  8
0
 10
77.9136
 20
97.4546
 30
0.0
 40
0.5
 41
0.5
  0
VERTEX
  8
0
 10
77.7097
 20
98.1345
 30
0.0
 40
0.5
 41
0.5
  0
VERTEX
  8
0
 10
77.5176
 20
98.2781
 30
0.0
 40
0.5
 41
0.5
  0
VERTEX
  8
0
 10
77.6416
 20
98.4746
 30
0.0
 40
0.5
 41
0.5
  0
VERTEX
  8
0
 10
77.4534
 20
98.6174
 30
0.0
 40
0.5
 41
0.5
  0
VERTEX
  8
0
 10
77.7776
 20
98.8826
 30
0.0
 40
0.5
 41
0.5
  0
VERTEX
  8
0
 10
77.8457
 20
99.4946
 30
0.0
 40
0.5
 41
0.5
  0
VERTEX
  8
0
 10
77.582
 20
99.6445
 30
0.0
 40
0.5
 41
0.5
  0
VERTEX
  8
0
 10
77.6418
 20
99.7559
 30
0.0
 40
0.5
 41
0.5
  0
VERTEX
  8
0
 10
78.0498
 20
100.038
 30
0.0
 40
0.5
 41
0.5
  0
VERTEX
  8
0
 10
77.7852
 20
99.8794
 30
0.0
 40
0.5
 41
0.5
  0
VERTEX
  8
0
 10
77.6516
 20
99.9644
 30
0.0
 40
0.5
 41
0.5
  0
VERTEX
  8
0
 10
77.5728
 20
99.769
 30
0.0
 40
0.5
 41
0.5
  0
VERTEX
  8
0
 10
77.0977
 20
99.8345
 30
0.0
 40
0.5
 41
0.5
  0
VERTEX
  8
0
 10
77.2305
 20
99.7651
 30
0.0
 40
0.5
 41
0.5
  0
VERTEX
  8
0
 10
77.1667
 20
99.6428
 30
0.0
 40
0.5
 41
0.5
  0
VERTEX
  8
0
 10
76.7878
 20
99.5459
 30
0.0
 40
0.5
 41
0.5
  0
VERTEX
  8
0
 10
76.8608
 20
98.6882
 30
0.0
 40
0.5
 41
0.5
  0
VERTEX
  8
0
 10
77.2231
 20
98.2029
 30
0.0
 40
0.5
 41
0.5
  0
VERTEX
  8
0
 10
77.1096
 20
98.1196
 30
0.0
 40
0.5
 41
0.5
  0
VERTEX
  8
0
 10
77.1655
 20
97.8625
 30
0.0
 40
0.5
 41
0.5
  0
VERTEX
  8
0
 10
77.3696
 20
97.9304
 30
0.0
 40
0.5
 41
0.5
  0
VERTEX
  8
0
 10
77.4316
 20
97.7983
 30
0.0
 40
0.5
 41
0.5
  0
VERTEX
  8
0
 10
77.2336
 20
97.5906
 30
0.0
 40
0.5
 41
0.5
  0
VERTEX
  8
0
 10
77.4355
 20
97.5217
 30
0.0
 40
0.5
 41
0.5
  0
VERTEX
  8
0
 10
77.3679
 20
97.3926
 30
0.0
 40
0.5
 41
0.5
  0
VERTEX
  8
0
 10
77.1655
 20
97.3865
 30
0.0
 40
0.5
 41
0.5
  0
VERTEX
  8
0
 10
77.0811
 20
95.8806
 30
0.0
 40
0.5
 41
0.5
  0
VERTEX
  8
0
 10
77.5737
 20
94.5986
 30
0.0
 40
0.5
 41
0.5
  0
VERTEX
  8
0
 10
77.2561
 20
94.4209
 30
0.0
 40
0.5
 41
0.5
  0
VERTEX
  8
0
 10
77.0977
 20
94.1228
 30
0.0
 40
0.5
 41
0.5
  0
VERTEX
  8
0
 10
77.4229
 20
93.9106
 30
0.0
 40
0.5
 41
0.5
  0
VERTEX
  8
0
 10
77.2979
 20
93.5969
 30
0.0
 40
0.5
 41
0.5
  0
VERTEX
  8
0
 10
77.1709
 20
93.6965
 30
0.0
 40
0.5
 41
0.5
  0
VERTEX
  8
0
 10
76.0237
 20
93.9951
 30
0.0
 40
0.5
 41
0.5
  0
VERTEX
  8
0
 10
75.9998
 20
94.2551
 30
0.0
 40
0.5
 41
0.5
  0
VERTEX
  8
0
 10
74.9971
 20
95.353
 30
0.0
 40
0.5
 41
0.5
  0
VERTEX
  8
0
 10
75.0596
 20
95.4766
 30
0.0
 40
0.5
 41
0.5
  0
VERTEX
  8
0
 10
75.251
 20
95.4941
 30
0.0
 40
0.5
 41
0.5
  0
VERTEX
  8
0
 10
75.9761
 20
95.9846
 30
0.0
 40
0.5
 41
0.5
  0
VERTEX
  8
0
 10
76.1489
 20
96.762
 30
0.0
 40
0.5
 41
0.5
  0
VERTEX
  8
0
 10
76.1697
 20
97.5835
 30
0.0
 40
0.5
 41
0.5
  0
VERTEX
  8
0
 10
76.3027
 20
97.9358
 30
0.0
 40
0.5
 41
0.5
  0
VERTEX
  8
0
 10
76.4177
 20
99.0864
 30
0.0
 40
0.5
 41
0.5
  0
VERTEX
  8
0
 10
75.9272
 20
98.6943
 30
0.0
 40
0.5
 41
0.5
  0
VERTEX
  8
0
 10
75.6697
 20
98.8145
 30
0.0
 40
0.5
 41
0.5
  0
VERTEX
  8
0
 10
75.9424
 20
98.4067
 30
0.0
 40
0.5
 41
0.5
  0
VERTEX
  8
0
 10
75.8718
 20
98.2766
 30
0.0
 40
0.5
 41
0.5
  0
VERTEX
  8
0
 10
75.6697
 20
98.2705
 30
0.0
 40
0.5
 41
0.5
  0
VERTEX
  8
0
 10
75.7444
 20
97.8418
 30
0.0
 40
0.5
 41
0.5
  0
VERTEX
  8
0
 10
75.5337
 20
97.5225
 30
0.0
 40
0.5
 41
0.5
  0
VERTEX
  8
0
 10
75.5601
 20
96.6389
 30
0.0
 40
0.5
 41
0.5
  0
VERTEX
  8
0
 10
75.4473
 20
96.3032
 30
0.0
 40
0.5
 41
0.5
  0
VERTEX
  8
0
 10
75.1895
 20
95.9683
 30
0.0
 40
0.5
 41
0.5
  0
VERTEX
  8
0
 10
74.7197
 20
96.0212
 30
0.0
 40
0.5
 41
0.5
  0
VERTEX
  8
0
 10
73.7659
 20
95.8906
 30
0.0
 40
0.5
 41
0.5
  0
VERTEX
  8
0
 10
73.8765
 20
95.5051
 30
0.0
 40
0.5
 41
0.5
  0
VERTEX
  8
0
 10
73.3848
 20
95.3599
 30
0.0
 40
0.5
 41
0.5
  0
VERTEX
  8
0
 10
73.0178
 20
95.7546
 30
0.0
 40
0.5
 41
0.5
  0
VERTEX
  8
0
 10
72.95
 20
95.1426
 30
0.0
 40
0.5
 41
0.5
  0
VERTEX
  8
0
 10
73.627
 20
95.1848
 30
0.0
 40
0.5
 41
0.5
  0
VERTEX
  8
0
 10
74.7976
 20
94.821
 30
0.0
 40
0.5
 41
0.5
  0
VERTEX
  8
0
 10
74.9226
 20
94.9246
 30
0.0
 40
0.5
 41
0.5
  0
VERTEX
  8
0
 10
75.3298
 20
94.6667
 30
0.0
 40
0.5
 41
0.5
  0
VERTEX
  8
0
 10
75.2751
 20
94.4775
 30
0.0
 40
0.5
 41
0.5
  0
VERTEX
  8
0
 10
75.3748
 20
94.5825
 30
0.0
 40
0.5
 41
0.5
  0
VERTEX
  8
0
 10
75.6279
 20
93.9321
 30
0.0
 40
0.5
 41
0.5
  0
VERTEX
  8
0
 10
75.3533
 20
93.6467
 30
0.0
 40
0.5
 41
0.5
  0
VERTEX
  8
0
 10
75.2312
 20
93.3223
 30
0.0
 40
0.5
 41
0.5
  0
VERTEX
  8
0
 10
75.5337
 20
93.4426
 30
0.0
 40
0.5
 41
0.5
  0
VERTEX
  8
0
 10
75.7571
 20
93.9216
 30
0.0
 40
0.5
 41
0.5
  0
VERTEX
  8
0
 10
75.929
 20
93.9731
 30
0.0
 40
0.5
 41
0.5
  0
VERTEX
  8
0
 10
76.2341
 20
93.4253
 30
0.0
 40
0.5
 41
0.5
  0
VERTEX
  8
0
 10
76.2627
 20
92.698
 30
0.0
 40
0.5
 41
0.5
  0
VERTEX
  8
0
 10
76.0103
 20
92.4395
 30
0.0
 40
0.5
 41
0.5
  0
VERTEX
  8
0
 10
75.2454
 20
92.5771
 30
0.0
 40
0.5
 41
0.5
  0
VERTEX
  8
0
 10
75.0913
 20
92.2271
 30
0.0
 40
0.5
 41
0.5
  0
VERTEX
  8
0
 10
75.0068
 20
91.9146
 30
0.0
 40
0.5
 41
0.5
  0
VERTEX
  8
0
 10
75.2451
 20
91.1453
 30
0.0
 40
0.5
 41
0.5
  0
VERTEX
  8
0
 10
75.4668
 20
91.3313
 30
0.0
 40
0.5
 41
0.5
  0
VERTEX
  8
0
 10
75.8057
 20
91.4028
 30
0.0
 40
0.5
 41
0.5
  0
VERTEX
  8
0
 10
76.0098
 20
91.0627
 30
0.0
 40
0.5
 41
0.5
  0
VERTEX
  8
0
 10
76.3787
 20
91.9456
 30
0.0
 40
0.5
 41
0.5
  0
VERTEX
  8
0
 10
76.6694
 20
91.991
 30
0.0
 40
0.5
 41
0.5
  0
VERTEX
  8
0
 10
77.0762
 20
91.7083
 30
0.0
 40
0.5
 41
0.5
  0
VERTEX
  8
0
 10
77.8447
 20
91.7131
 30
0.0
 40
0.5
 41
0.5
  0
VERTEX
  8
0
 10
77.9285
 20
91.4282
 30
0.0
 40
0.5
 41
0.5
  0
VERTEX
  8
0
 10
78.4585
 20
91.2686
 30
0.0
 40
0.5
 41
0.5
  0
VERTEX
  8
0
 10
78.7661
 20
91.302
 30
0.0
 40
0.5
 41
0.5
  0
VERTEX
  8
0
 10
78.9441
 20
91.2642
 30
0.0
 40
0.5
 41
0.5
  0
VERTEX
  8
0
 10
78.7371
 20
90.6472
 30
0.0
 40
0.5
 41
0.5
  0
VERTEX
  8
0
 10
78.613
 20
89.9802
 30
0.0
 40
0.5
 41
0.5
  0
VERTEX
  8
0
 10
78.7156
 20
89.7134
 30
0.0
 40
0.5
 41
0.5
  0
VERTEX
  8
0
 10
78.1169
 20
89.8225
 30
0.0
 40
0.5
 41
0.5
  0
VERTEX
  8
0
 10
77.9861
 20
89.7773
 30
0.0
 40
0.5
 41
0.5
  0
VERTEX
  8
0
 10
77.7097
 20
90.0427
 30
0.0
 40
0.5
 41
0.5
  0
VERTEX
  8
0
 10
77.6477
 20
89.6938
 30
0.0
 40
0.5
 41
0.5
  0
VERTEX
  8
0
 10
77.5044
 20
89.479
 30
0.0
 40
0.5
 41
0.5
  0
VERTEX
  8
0
 10
77.0359
 20
89.2231
 30
0.0
 40
0.5
 41
0.5
  0
VERTEX
  8
0
 10
76.6814
 20
88.8318
 30
0.0
 40
0.5
 41
0.5
  0
VERTEX
  8
0
 10
76.502
 20
88.886
 30
0.0
 40
0.5
 41
0.5
  0
VERTEX
  8
0
 10
76.2136
 20
89.1589
 30
0.0
 40
0.5
 41
0.5
  0
VERTEX
  8
0
 10
76.3499
 20
89.2949
 30
0.0
 40
0.5
 41
0.5
  0
VERTEX
  8
0
 10
76.6187
 20
89.2393
 30
0.0
 40
0.5
 41
0.5
  0
VERTEX
  8
0
 10
76.6897
 20
89.4988
 30
0.0
 40
0.5
 41
0.5
  0
VERTEX
  8
0
 10
76.4199
 20
89.3877
 30
0.0
 40
0.5
 41
0.5
  0
VERTEX
  8
0
 10
76.2339
 20
89.5991
 30
0.0
 40
0.5
 41
0.5
  0
VERTEX
  8
0
 10
76.1838
 20
89.8784
 30
0.0
 40
0.5
 41
0.5
  0
VERTEX
  8
0
 10
75.8821
 20
89.8701
 30
0.0
 40
0.5
 41
0.5
  0
VERTEX
  8
0
 10
75.5386
 20
89.9114
 30
0.0
 40
0.5
 41
0.5
  0
VERTEX
  8
0
 10
75.5337
 20
90.2468
 30
0.0
 40
0.5
 41
0.5
  0
VERTEX
  8
0
 10
75.2612
 20
89.8833
 30
0.0
 40
0.5
 41
0.5
  0
VERTEX
  8
0
 10
74.7737
 20
90.3374
 30
0.0
 40
0.5
 41
0.5
  0
VERTEX
  8
0
 10
74.311
 20
90.3967
 30
0.0
 40
0.5
 41
0.5
  0
VERTEX
  8
0
 10
74.1792
 20
90.5005
 30
0.0
 40
0.5
 41
0.5
  0
VERTEX
  8
0
 10
73.395
 20
90.314
 30
0.0
 40
0.5
 41
0.5
  0
VERTEX
  8
0
 10
72.5212
 20
90.3621
 30
0.0
 40
0.5
 41
0.5
  0
VERTEX
  8
0
 10
72.2827
 20
90.2756
 30
0.0
 40
0.5
 41
0.5
  0
VERTEX
  8
0
 10
71.5376
 20
90.2136
 30
0.0
 40
0.5
 41
0.5
  0
VERTEX
  8
0
 10
71.3274
 20
90.4392
 30
0.0
 40
0.5
 41
0.5
  0
VERTEX
  8
0
 10
71.3994
 20
90.687
 30
0.0
 40
0.5
 41
0.5
  0
VERTEX
  8
0
 10
71.7939
 20
90.5188
 30
0.0
 40
0.5
 41
0.5
  0
VERTEX
  8
0
 10
71.8948
 20
91.0107
 30
0.0
 40
0.5
 41
0.5
  0
VERTEX
  8
0
 10
71.5266
 20
91.3252
 30
0.0
 40
0.5
 41
0.5
  0
VERTEX
  8
0
 10
71.1772
 20
90.8899
 30
0.0
 40
0.5
 41
0.5
  0
VERTEX
  8
0
 10
70.5249
 20
91.2175
 30
0.0
 40
0.5
 41
0.5
  0
VERTEX
  8
0
 10
70.4846
 20
91.5991
 30
0.0
 40
0.5
 41
0.5
  0
VERTEX
  8
0
 10
69.7585
 20
91.8362
 30
0.0
 40
0.5
 41
0.5
  0
VERTEX
  8
0
 10
69.55
 20
92.1506
 30
0.0
 40
0.5
 41
0.5
  0
VERTEX
  8
0
 10
69.1958
 20
91.937
 30
0.0
 40
0.5
 41
0.5
  0
VERTEX
  8
0
 10
68.7939
 20
91.8433
 30
0.0
 40
0.5
 41
0.5
  0
VERTEX
  8
0
 10
68.656
 20
91.5396
 30
0.0
 40
0.5
 41
0.5
  0
VERTEX
  8
0
 10
68.5315
 20
91.4739
 30
0.0
 40
0.5
 41
0.5
  0
VERTEX
  8
0
 10
68.4622
 20
91.6069
 30
0.0
 40
0.5
 41
0.5
  0
VERTEX
  8
0
 10
68.2659
 20
91.5371
 30
0.0
 40
0.5
 41
0.5
  0
VERTEX
  8
0
 10
68.2937
 20
91.1091
 30
0.0
 40
0.5
 41
0.5
  0
VERTEX
  8
0
 10
68.249
 20
90.6887
 30
0.0
 40
0.5
 41
0.5
  0
VERTEX
  8
0
 10
67.5793
 20
90.855
 30
0.0
 40
0.5
 41
0.5
  0
VERTEX
  8
0
 10
67.1008
 20
90.4873
 30
0.0
 40
0.5
 41
0.5
  0
VERTEX
  8
0
 10
66.5461
 20
90.3501
 30
0.0
 40
0.5
 41
0.5
  0
VERTEX
  8
0
 10
66.3542
 20
90.1108
 30
0.0
 40
0.5
 41
0.5
  0
VERTEX
  8
0
 10
66.1997
 20
90.3091
 30
0.0
 40
0.5
 41
0.5
  0
VERTEX
  8
0
 10
66.082
 20
90.2468
 30
0.0
 40
0.5
 41
0.5
  0
VERTEX
  8
0
 10
65.741
 20
90.5703
 30
0.0
 40
0.5
 41
0.5
  0
VERTEX
  8
0
 10
65.6079
 20
90.5225
 30
0.0
 40
0.5
 41
0.5
  0
VERTEX
  8
0
 10
65.4885
 20
91.1396
 30
0.0
 40
0.5
 41
0.5
  0
VERTEX
  8
0
 10
65.5952
 20
91.2485
 30
0.0
 40
0.5
 41
0.5
  0
VERTEX
  8
0
 10
66.0886
 20
91.3953
 30
0.0
 40
0.5
 41
0.5
  0
VERTEX
  8
0
 10
66.2131
 20
91.3333
 30
0.0
 40
0.5
 41
0.5
  0
VERTEX
  8
0
 10
66.218
 20
91.1987
 30
0.0
 40
0.5
 41
0.5
  0
VERTEX
  8
0
 10
66.4937
 20
91.8049
 30
0.0
 40
0.5
 41
0.5
  0
VERTEX
  8
0
 10
66.6262
 20
91.7429
 30
0.0
 40
0.5
 41
0.5
  0
VERTEX
  8
0
 10
66.5581
 20
91.6069
 30
0.0
 40
0.5
 41
0.5
  0
VERTEX
  8
0
 10
66.8345
 20
91.9336
 30
0.0
 40
0.5
 41
0.5
  0
VERTEX
  8
0
 10
67.554
 20
92.3223
 30
0.0
 40
0.5
 41
0.5
  0
VERTEX
  8
0
 10
67.3872
 20
92.4902
 30
0.0
 40
0.5
 41
0.5
  0
VERTEX
  8
0
 10
66.9421
 20
93.5901
 30
0.0
 40
0.5
 41
0.5
  0
VERTEX
  8
0
 10
66.5012
 20
93.7197
 30
0.0
 40
0.5
 41
0.5
  0
VERTEX
  8
0
 10
66.6191
 20
94.062
 30
0.0
 40
0.5
 41
0.5
  0
VERTEX
  8
0
 10
66.5647
 20
94.3149
 30
0.0
 40
0.5
 41
0.5
  0
VERTEX
  8
0
 10
66.7729
 20
94.2734
 30
0.0
 40
0.5
 41
0.5
  0
VERTEX
  8
0
 10
67.1472
 20
94.4258
 30
0.0
 40
0.5
 41
0.5
  0
VERTEX
  8
0
 10
68.0461
 20
95.4221
 30
0.0
 40
0.5
 41
0.5
  0
VERTEX
  8
0
 10
67.9861
 20
95.5505
 30
0.0
 40
0.5
 41
0.5
  0
VERTEX
  8
0
 10
67.6194
 20
95.5916
 30
0.0
 40
0.5
 41
0.5
  0
VERTEX
  8
0
 10
67.1699
 20
95.7546
 30
0.0
 40
0.5
 41
0.5
  0
VERTEX
  8
0
 10
66.7002
 20
95.4956
 30
0.0
 40
0.5
 41
0.5
  0
VERTEX
  8
0
 10
66.4221
 20
96.1626
 30
0.0
 40
0.5
 41
0.5
  0
VERTEX
  8
0
 10
66.2419
 20
96.4048
 30
0.0
 40
0.5
 41
0.5
  0
VERTEX
  8
0
 10
66.4033
 20
97.0378
 30
0.0
 40
0.5
 41
0.5
  0
VERTEX
  8
0
 10
66.2197
 20
97.0527
 30
0.0
 40
0.5
 41
0.5
  0
VERTEX
  8
0
 10
66.155
 20
97.1797
 30
0.0
 40
0.5
 41
0.5
  0
VERTEX
  8
0
 10
66.2888
 20
97.3137
 30
0.0
 40
0.5
 41
0.5
  0
VERTEX
  8
0
 10
66.4221
 20
97.2507
 30
0.0
 40
0.5
 41
0.5
  0
VERTEX
  8
0
 10
66.2844
 20
97.3733
 30
0.0
 40
0.5
 41
0.5
  0
VERTEX
  8
0
 10
65.9609
 20
97.5266
 30
0.0
 40
0.5
 41
0.5
  0
VERTEX
  8
0
 10
66.166
 20
98.2454
 30
0.0
 40
0.5
 41
0.5
  0
VERTEX
  8
0
 10
66.7024
 20
98.5149
 30
0.0
 40
0.5
 41
0.5
  0
VERTEX
  8
0
 10
67.5781
 20
99.0864
 30
0.0
 40
0.5
 41
0.5
  0
VERTEX
  8
0
 10
67.6943
 20
99.0234
 30
0.0
 40
0.5
 41
0.5
  0
VERTEX
  8
0
 10
68.3958
 20
99.4084
 30
0.0
 40
0.5
 41
0.5
  0
VERTEX
  8
0
 10
69.0376
 20
99.5032
 30
0.0
 40
0.5
 41
0.5
  0
VERTEX
  8
0
 10
69.4248
 20
99.8406
 30
0.0
 40
0.5
 41
0.5
  0
SEQEND
  8
0
  0
POLYLINE
8
0
 62
     0
 66
     1
 10
0
 20
0
 30
0.0
 70
     1
 40
0.5
 41
0.5
  0
VERTEX
  8
0
 10
176.961
 20
91.6387
 30
0.0
 40
0.5
 41
0.5
  0
VERTEX
  8
0
 10
176.958
 20
91.6582
 30
0.0
 40
0.5
 41
0.5
  0
VERTEX
  8
0
 10
176.958
 20
91.6838
 30
0.0
 40
0.5
 41
0.5
  0
VERTEX
  8
0
 10
176.981
 20
91.9116
 30
0.0
 40
0.5
 41
0.5
  0
VERTEX
  8
0
 10
177.06
 20
92.2117
 30
0.0
 40
0.5
 41
0.5
  0
VERTEX
  8
0
 10
177.303
 20
92.6287
 30
0.0
 40
0.5
 41
0.5
  0
VERTEX
  8
0
 10
177.738
 20
92.8176
 30
0.0
 40
0.5
 41
0.5
  0
VERTEX
  8
0
 10
178.305
 20
92.5012
 30
0.0
 40
0.5
 41
0.5
  0
VERTEX
  8
0
 10
178.536
 20
91.8066
 30
0.0
 40
0.5
 41
0.5
  0
VERTEX
  8
0
 10
178.541
 20
91.7451
 30
0.0
 40
0.5
 41
0.5
  0
VERTEX
  8
0
 10
178.542
 20
91.6838
 30
0.0
 40
0.5
 41
0.5
  0
VERTEX
  8
0
 10
178.533
 20
91.4946
 30
0.0
 40
0.5
 41
0.5
  0
VERTEX
  8
0
 10
178.506
 20
91.2937
 30
0.0
 40
0.5
 41
0.5
  0
VERTEX
  8
0
 10
178.272
 20
90.7178
 30
0.0
 40
0.5
 41
0.5
  0
VERTEX
  8
0
 10
177.762
 20
90.4568
 30
0.0
 40
0.5
 41
0.5
  0
VERTEX
  8
0
 10
177.284
 20
90.6563
 30
0.0
 40
0.5
 41
0.5
  0
VERTEX
  8
0
 10
177.042
 20
91.0957
 30
0.0
 40
0.5
 41
0.5
  0
VERTEX
  8
0
 10
176.978
 20
91.4001
 30
0.0
 40
0.5
 41
0.5
  0
VERTEX
  8
0
 10
176.961
 20
91.6357
 30
0.0
 40
0.5
 41
0.5
  0
VERTEX
  8
0
 10
176.961
 20
91.6387
 30
0.0
 40
0.5
 41
0.5
  0
SEQEND
  8
0
  0
POLYLINE
8
0
 62
     0
 66
     1
 10
0
 20
0
 30
0.0
 70
     1
 40
0.5
 41
0.5
  0
VERTEX
  8
0
 10
178.26
 20
91.6628
 30
0.0
 40
0.5
 41
0.5
  0
VERTEX
  8
0
 10
178.143
 20
92.2568
 30
0.0
 40
0.5
 41
0.5
  0
VERTEX
  8
0
 10
177.888
 20
92.5479
 30
0.0
 40
0.5
 41
0.5
  0
VERTEX
  8
0
 10
177.836
 20
92.5703
 30
0.0
 40
0.5
 41
0.5
  0
VERTEX
  8
0
 10
177.786
 20
92.5808
 30
0.0
 40
0.5
 41
0.5
  0
VERTEX
  8
0
 10
177.776
 20
92.5823
 30
0.0
 40
0.5
 41
0.5
  0
VERTEX
  8
0
 10
177.765
 20
92.5837
 30
0.0
 40
0.5
 41
0.5
  0
VERTEX
  8
0
 10
177.755
 20
92.5837
 30
0.0
 40
0.5
 41
0.5
  0
VERTEX
  8
0
 10
177.744
 20
92.5837
 30
0.0
 40
0.5
 41
0.5
  0
VERTEX
  8
0
 10
177.446
 20
92.4128
 30
0.0
 40
0.5
 41
0.5
  0
VERTEX
  8
0
 10
177.291
 20
92.0378
 30
0.0
 40
0.5
 41
0.5
  0
VERTEX
  8
0
 10
177.254
 20
91.8203
 30
0.0
 40
0.5
 41
0.5
  0
VERTEX
  8
0
 10
177.243
 20
91.6357
 30
0.0
 40
0.5
 41
0.5
  0
VERTEX
  8
0
 10
177.255
 20
91.4558
 30
0.0
 40
0.5
 41
0.5
  0
VERTEX
  8
0
 10
177.294
 20
91.2427
 30
0.0
 40
0.5
 41
0.5
  0
VERTEX
  8
0
 10
177.448
 20
90.8796
 30
0.0
 40
0.5
 41
0.5
  0
VERTEX
  8
0
 10
177.738
 20
90.7148
 30
0.0
 40
0.5
 41
0.5
  0
VERTEX
  8
0
 10
178.133
 20
90.9922
 30
0.0
 40
0.5
 41
0.5
  0
VERTEX
  8
0
 10
178.26
 20
91.6597
 30
0.0
 40
0.5
 41
0.5
  0
VERTEX
  8
0
 10
178.26
 20
91.6628
 30
0.0
 40
0.5
 41
0.5
  0
SEQEND
  8
0
  0
POLYLINE
8
0
 62
     0
 66
     1
 10
0
 20
0
 30
0.0
 70
     1
 40
0.5
 41
0.5
  0
VERTEX
  8
0
 10
180.1
 20
93.1267
 30
0.0
 40
0.5
 41
0.5
  0
VERTEX
  8
0
 10
180.1
 20
90.5046
 30
0.0
 40
0.5
 41
0.5
  0
VERTEX
  8
0
 10
179.839
 20
90.5046
 30
0.0
 40
0.5
 41
0.5
  0
VERTEX
  8
0
 10
179.839
 20
90.7417
 30
0.0
 40
0.5
 41
0.5
  0
VERTEX
  8
0
 10
179.74
 20
90.6113
 30
0.0
 40
0.5
 41
0.5
  0
VERTEX
  8
0
 10
179.632
 20
90.5256
 30
0.0
 40
0.5
 41
0.5
  0
VERTEX
  8
0
 10
179.488
 20
90.4717
 30
0.0
 40
0.5
 41
0.5
  0
VERTEX
  8
0
 10
179.368
 20
90.4568
 30
0.0
 40
0.5
 41
0.5
  0
VERTEX
  8
0
 10
179.35
 20
90.4568
 30
0.0
 40
0.5
 41
0.5
  0
VERTEX
  8
0
 10
179.332
 20
90.4568
 30
0.0
 40
0.5
 41
0.5
  0
VERTEX
  8
0
 10
178.918
 20
90.5991
 30
0.0
 40
0.5
 41
0.5
  0
VERTEX
  8
0
 10
178.705
 20
90.9216
 30
0.0
 40
0.5
 41
0.5
  0
VERTEX
  8
0
 10
178.671
 20
91.0583
 30
0.0
 40
0.5
 41
0.5
  0
VERTEX
  8
0
 10
178.66
 20
91.1858
 30
0.0
 40
0.5
 41
0.5
  0
VERTEX
  8
0
 10
178.854
 20
91.7542
 30
0.0
 40
0.5
 41
0.5
  0
VERTEX
  8
0
 10
179.281
 20
91.9626
 30
0.0
 40
0.5
 41
0.5
  0
VERTEX
  8
0
 10
179.313
 20
91.9658
 30
0.0
 40
0.5
 41
0.5
  0
VERTEX
  8
0
 10
179.344
 20
91.9658
 30
0.0
 40
0.5
 41
0.5
  0
VERTEX
  8
0
 10
179.419
 20
91.9612
 30
0.0
 40
0.5
 41
0.5
  0
VERTEX
  8
0
 10
179.497
 20
91.9478
 30
0.0
 40
0.5
 41
0.5
  0
VERTEX
  8
0
 10
179.679
 20
91.8667
 30
0.0
 40
0.5
 41
0.5
  0
VERTEX
  8
0
 10
179.818
 20
91.7078
 30
0.0
 40
0.5
 41
0.5
  0
VERTEX
  8
0
 10
179.818
 20
93.1267
 30
0.0
 40
0.5
 41
0.5
  0
VERTEX
  8
0
 10
180.1
 20
93.1267
 30
0.0
 40
0.5
 41
0.5
  0
SEQEND
  8
0
  0
POLYLINE
8
0
 62
     0
 66
     1
 10
0
 20
0
 30
0.0
 70
     1
 40
0.5
 41
0.5
  0
VERTEX
  8
0
 10
179.818
 20
91.2368
 30
0.0
 40
0.5
 41
0.5
  0
VERTEX
  8
0
 10
179.712
 20
91.5967
 30
0.0
 40
0.5
 41
0.5
  0
VERTEX
  8
0
 10
179.392
 20
91.7288
 30
0.0
 40
0.5
 41
0.5
  0
VERTEX
  8
0
 10
179.088
 20
91.6013
 30
0.0
 40
0.5
 41
0.5
  0
VERTEX
  8
0
 10
178.954
 20
91.3208
 30
0.0
 40
0.5
 41
0.5
  0
VERTEX
  8
0
 10
178.945
 20
91.2532
 30
0.0
 40
0.5
 41
0.5
  0
VERTEX
  8
0
 10
178.942
 20
91.1858
 30
0.0
 40
0.5
 41
0.5
  0
VERTEX
  8
0
 10
178.951
 20
91.0913
 30
0.0
 40
0.5
 41
0.5
  0
VERTEX
  8
0
 10
178.981
 20
90.9846
 30
0.0
 40
0.5
 41
0.5
  0
VERTEX
  8
0
 10
179.118
 20
90.7822
 30
0.0
 40
0.5
 41
0.5
  0
VERTEX
  8
0
 10
179.392
 20
90.6907
 30
0.0
 40
0.5
 41
0.5
  0
VERTEX
  8
0
 10
179.688
 20
90.8184
 30
0.0
 40
0.5
 41
0.5
  0
VERTEX
  8
0
 10
179.806
 20
91.0986
 30
0.0
 40
0.5
 41
0.5
  0
VERTEX
  8
0
 10
179.815
 20
91.1663
 30
0.0
 40
0.5
 41
0.5
  0
VERTEX
  8
0
 10
179.818
 20
91.2336
 30
0.0
 40
0.5
 41
0.5
  0
VERTEX
  8
0
 10
179.818
 20
91.2368
 30
0.0
 40
0.5
 41
0.5
  0
SEQEND
  8
0
  0
POLYLINE
8
0
 62
     0
 66
     1
 10
0
 20
0
 30
0.0
 70
     1
 40
0.5
 41
0.5
  0
VERTEX
  8
0
 10
180.739
 20
92.7488
 30
0.0
 40
0.5
 41
0.5
  0
VERTEX
  8
0
 10
180.851
 20
92.7458
 30
0.0
 40
0.5
 41
0.5
  0
VERTEX
  8
0
 10
180.969
 20
92.7397
 30
0.0
 40
0.5
 41
0.5
  0
VERTEX
  8
0
 10
181.384
 20
92.6318
 30
0.0
 40
0.5
 41
0.5
  0
VERTEX
  8
0
 10
181.588
 20
92.2268
 30
0.0
 40
0.5
 41
0.5
  0
VERTEX
  8
0
 10
181.517
 20
91.9072
 30
0.0
 40
0.5
 41
0.5
  0
VERTEX
  8
0
 10
181.306
 20
91.7288
 30
0.0
 40
0.5
 41
0.5
  0
VERTEX
  8
0
 10
181.339
 20
91.7258
 30
0.0
 40
0.5
 41
0.5
  0
VERTEX
  8
0
 10
181.372
 20
91.7168
 30
0.0
 40
0.5
 41
0.5
  0
VERTEX
  8
0
 10
181.667
 20
91.5156
 30
0.0
 40
0.5
 41
0.5
  0
VERTEX
  8
0
 10
181.801
 20
91.1167
 30
0.0
 40
0.5
 41
0.5
  0
VERTEX
  8
0
 10
181.565
 20
90.6606
 30
0.0
 40
0.5
 41
0.5
  0
VERTEX
  8
0
 10
180.973
 20
90.5046
 30
0.0
 40
0.5
 41
0.5
  0
VERTEX
  8
0
 10
180.454
 20
90.5046
 30
0.0
 40
0.5
 41
0.5
  0
VERTEX
  8
0
 10
180.454
 20
92.7488
 30
0.0
 40
0.5
 41
0.5
  0
VERTEX
  8
0
 10
180.739
 20
92.7488
 30
0.0
 40
0.5
 41
0.5
  0
SEQEND
  8
0
  0
POLYLINE
8
0
 62
     0
 66
     1
 10
0
 20
0
 30
0.0
 70
     1
 40
0.5
 41
0.5
  0
VERTEX
  8
0
 10
180.76
 20
91.5667
 30
0.0
 40
0.5
 41
0.5
  0
VERTEX
  8
0
 10
180.76
 20
90.7417
 30
0.0
 40
0.5
 41
0.5
  0
VERTEX
  8
0
 10
180.847
 20
90.7312
 30
0.0
 40
0.5
 41
0.5
  0
VERTEX
  8
0
 10
180.927
 20
90.7268
 30
0.0
 40
0.5
 41
0.5
  0
VERTEX
  8
0
 10
181.26
 20
90.7913
 30
0.0
 40
0.5
 41
0.5
  0
VERTEX
  8
0
 10
181.438
 20
90.9338
 30
0.0
 40
0.5
 41
0.5
  0
VERTEX
  8
0
 10
181.481
 20
91.0208
 30
0.0
 40
0.5
 41
0.5
  0
VERTEX
  8
0
 10
181.495
 20
91.0928
 30
0.0
 40
0.5
 41
0.5
  0
VERTEX
  8
0
 10
181.495
 20
91.1108
 30
0.0
 40
0.5
 41
0.5
  0
VERTEX
  8
0
 10
181.495
 20
91.1318
 30
0.0
 40
0.5
 41
0.5
  0
VERTEX
  8
0
 10
181.316
 20
91.4617
 30
0.0
 40
0.5
 41
0.5
  0
VERTEX
  8
0
 10
180.76
 20
91.5637
 30
0.0
 40
0.5
 41
0.5
  0
VERTEX
  8
0
 10
180.76
 20
91.5667
 30
0.0
 40
0.5
 41
0.5
  0
SEQEND
  8
0
  0
POLYLINE
8
0
 62
     0
 66
     1
 10
0
 20
0
 30
0.0
 70
     1
 40
0.5
 41
0.5
  0
VERTEX
  8
0
 10
180.76
 20
92.5356
 30
0.0
 40
0.5
 41
0.5
  0
VERTEX
  8
0
 10
180.76
 20
91.7798
 30
0.0
 40
0.5
 41
0.5
  0
VERTEX
  8
0
 10
180.809
 20
91.7737
 30
0.0
 40
0.5
 41
0.5
  0
VERTEX
  8
0
 10
180.859
 20
91.7737
 30
0.0
 40
0.5
 41
0.5
  0
VERTEX
  8
0
 10
181.192
 20
91.8562
 30
0.0
 40
0.5
 41
0.5
  0
VERTEX
  8
0
 10
181.306
 20
92.1309
 30
0.0
 40
0.5
 41
0.5
  0
VERTEX
  8
0
 10
181.306
 20
92.1382
 30
0.0
 40
0.5
 41
0.5
  0
VERTEX
  8
0
 10
181.306
 20
92.1458
 30
0.0
 40
0.5
 41
0.5
  0
VERTEX
  8
0
 10
181.304
 20
92.2131
 30
0.0
 40
0.5
 41
0.5
  0
VERTEX
  8
0
 10
181.294
 20
92.2898
 30
0.0
 40
0.5
 41
0.5
  0
VERTEX
  8
0
 10
181.175
 20
92.4578
 30
0.0
 40
0.5
 41
0.5
  0
VERTEX
  8
0
 10
180.829
 20
92.5327
 30
0.0
 40
0.5
 41
0.5
  0
VERTEX
  8
0
 10
180.796
 20
92.5327
 30
0.0
 40
0.5
 41
0.5
  0
VERTEX
  8
0
 10
180.76
 20
92.5327
 30
0.0
 40
0.5
 41
0.5
  0
VERTEX
  8
0
 10
180.76
 20
92.5356
 30
0.0
 40
0.5
 41
0.5
  0
SEQEND
  8
0
  0
POLYLINE
8
0
 62
     0
 66
     1
 10
0
 20
0
 30
0.0
 70
     1
 40
0.5
 41
0.5
  0
VERTEX
  8
0
 10
210.446
 20
77.3416
 30
0.0
 40
0.5
 41
0.5
  0
VERTEX
  8
0
 10
210.47
 20
77.3806
 30
0.0
 40
0.5
 41
0.5
  0
VERTEX
  8
0
 10
210.518
 20
77.4375
 30
0.0
 40
0.5
 41
0.5
  0
VERTEX
  8
0
 10
210.637
 20
77.5156
 30
0.0
 40
0.5
 41
0.5
  0
VERTEX
  8
0
 10
210.824
 20
77.5518
 30
0.0
 40
0.5
 41
0.5
  0
VERTEX
  8
0
 10
210.88
 20
77.5486
 30
0.0
 40
0.5
 41
0.5
  0
VERTEX
  8
0
 10
210.935
 20
77.5396
 30
0.0
 40
0.5
 41
0.5
  0
VERTEX
  8
0
 10
211.096
 20
77.4661
 30
0.0
 40
0.5
 41
0.5
  0
VERTEX
  8
0
 10
211.226
 20
77.2935
 30
0.0
 40
0.5
 41
0.5
  0
VERTEX
  8
0
 10
211.252
 20
77.3311
 30
0.0
 40
0.5
 41
0.5
  0
VERTEX
  8
0
 10
211.281
 20
77.3687
 30
0.0
 40
0.5
 41
0.5
  0
VERTEX
  8
0
 10
211.436
 20
77.4946
 30
0.0
 40
0.5
 41
0.5
  0
VERTEX
  8
0
 10
211.667
 20
77.5544
 30
0.0
 40
0.5
 41
0.5
  0
VERTEX
  8
0
 10
211.696
 20
77.5544
 30
0.0
 40
0.5
 41
0.5
  0
VERTEX
  8
0
 10
211.721
 20
77.5518
 30
0.0
 40
0.5
 41
0.5
  0
VERTEX
  8
0
 10
212.047
 20
77.3596
 30
0.0
 40
0.5
 41
0.5
  0
VERTEX
  8
0
 10
212.123
 20
76.9365
 30
0.0
 40
0.5
 41
0.5
  0
VERTEX
  8
0
 10
212.123
 20
76.0906
 30
0.0
 40
0.5
 41
0.5
  0
VERTEX
  8
0
 10
211.862
 20
76.0906
 30
0.0
 40
0.5
 41
0.5
  0
VERTEX
  8
0
 10
211.862
 20
76.9397
 30
0.0
 40
0.5
 41
0.5
  0
VERTEX
  8
0
 10
211.804
 20
77.1946
 30
0.0
 40
0.5
 41
0.5
  0
VERTEX
  8
0
 10
211.604
 20
77.2935
 30
0.0
 40
0.5
 41
0.5
  0
VERTEX
  8
0
 10
211.379
 20
77.2112
 30
0.0
 40
0.5
 41
0.5
  0
VERTEX
  8
0
 10
211.295
 20
76.9155
 30
0.0
 40
0.5
 41
0.5
  0
VERTEX
  8
0
 10
211.295
 20
76.0906
 30
0.0
 40
0.5
 41
0.5
  0
VERTEX
  8
0
 10
211.013
 20
76.0906
 30
0.0
 40
0.5
 41
0.5
  0
VERTEX
  8
0
 10
211.013
 20
76.9875
 30
0.0
 40
0.5
 41
0.5
  0
VERTEX
  8
0
 10
210.949
 20
77.2036
 30
0.0
 40
0.5
 41
0.5
  0
VERTEX
  8
0
 10
210.809
 20
77.2876
 30
0.0
 40
0.5
 41
0.5
  0
VERTEX
  8
0
 10
210.781
 20
77.292
 30
0.0
 40
0.5
 41
0.5
  0
VERTEX
  8
0
 10
210.752
 20
77.2935
 30
0.0
 40
0.5
 41
0.5
  0
VERTEX
  8
0
 10
210.725
 20
77.2935
 30
0.0
 40
0.5
 41
0.5
  0
VERTEX
  8
0
 10
210.698
 20
77.2905
 30
0.0
 40
0.5
 41
0.5
  0
VERTEX
  8
0
 10
210.524
 20
77.2095
 30
0.0
 40
0.5
 41
0.5
  0
VERTEX
  8
0
 10
210.446
 20
76.9365
 30
0.0
 40
0.5
 41
0.5
  0
VERTEX
  8
0
 10
210.446
 20
76.0906
 30
0.0
 40
0.5
 41
0.5
  0
VERTEX
  8
0
 10
210.161
 20
76.0906
 30
0.0
 40
0.5
 41
0.5
  0
VERTEX
  8
0
 10
210.161
 20
77.4856
 30
0.0
 40
0.5
 41
0.5
  0
VERTEX
  8
0
 10
210.446
 20
77.4856
 30
0.0
 40
0.5
 41
0.5
  0
VERTEX
  8
0
 10
210.446
 20
77.3416
 30
0.0
 40
0.5
 41
0.5
  0
SEQEND
  8
0
  0
POLYLINE
8
0
 62
     0
 66
     1
 10
0
 20
0
 30
0.0
 70
     1
 40
0.5
 41
0.5
  0
VERTEX
  8
0
 10
212.827
 20
77.4856
 30
0.0
 40
0.5
 41
0.5
  0
VERTEX
  8
0
 10
212.827
 20
76.0906
 30
0.0
 40
0.5
 41
0.5
  0
VERTEX
  8
0
 10
212.545
 20
76.0906
 30
0.0
 40
0.5
 41
0.5
  0
VERTEX
  8
0
 10
212.545
 20
77.4856
 30
0.0
 40
0.5
 41
0.5
  0
VERTEX
  8
0
 10
212.827
 20
77.4856
 30
0.0
 40
0.5
 41
0.5
  0
SEQEND
  8
0
  0
POLYLINE
8
0
 62
     0
 66
     1
 10
0
 20
0
 30
0.0
 70
     1
 40
0.5
 41
0.5
  0
VERTEX
  8
0
 10
212.686
 20
78.3105
 30
0.0
 40
0.5
 41
0.5
  0
VERTEX
  8
0
 10
212.815
 20
78.2505
 30
0.0
 40
0.5
 41
0.5
  0
VERTEX
  8
0
 10
212.857
 20
78.1426
 30
0.0
 40
0.5
 41
0.5
  0
VERTEX
  8
0
 10
212.857
 20
78.1379
 30
0.0
 40
0.5
 41
0.5
  0
VERTEX
  8
0
 10
212.857
 20
78.1335
 30
0.0
 40
0.5
 41
0.5
  0
VERTEX
  8
0
 10
212.807
 20
78.0107
 30
0.0
 40
0.5
 41
0.5
  0
VERTEX
  8
0
 10
212.686
 20
77.9536
 30
0.0
 40
0.5
 41
0.5
  0
VERTEX
  8
0
 10
212.554
 20
78.0076
 30
0.0
 40
0.5
 41
0.5
  0
VERTEX
  8
0
 10
212.509
 20
78.1274
 30
0.0
 40
0.5
 41
0.5
  0
VERTEX
  8
0
 10
212.551
 20
78.2522
 30
0.0
 40
0.5
 41
0.5
  0
VERTEX
  8
0
 10
212.686
 20
78.3076
 30
0.0
 40
0.5
 41
0.5
  0
VERTEX
  8
0
 10
212.686
 20
78.3105
 30
0.0
 40
0.5
 41
0.5
  0
SEQEND
  8
0
  0
POLYLINE
8
0
 62
     0
 66
     1
 10
0
 20
0
 30
0.0
 70
     1
 40
0.5
 41
0.5
  0
VERTEX
  8
0
 10
213.51
 20
77.4856
 30
0.0
 40
0.5
 41
0.5
  0
VERTEX
  8
0
 10
213.51
 20
77.2966
 30
0.0
 40
0.5
 41
0.5
  0
VERTEX
  8
0
 10
213.594
 20
77.376
 30
0.0
 40
0.5
 41
0.5
  0
VERTEX
  8
0
 10
213.666
 20
77.4375
 30
0.0
 40
0.5
 41
0.5
  0
VERTEX
  8
0
 10
213.784
 20
77.4961
 30
0.0
 40
0.5
 41
0.5
  0
VERTEX
  8
0
 10
213.957
 20
77.5276
 30
0.0
 40
0.5
 41
0.5
  0
VERTEX
  8
0
 10
214.022
 20
77.5247
 30
0.0
 40
0.5
 41
0.5
  0
VERTEX
  8
0
 10
214.092
 20
77.5125
 30
0.0
 40
0.5
 41
0.5
  0
VERTEX
  8
0
 10
214.341
 20
77.3687
 30
0.0
 40
0.5
 41
0.5
  0
VERTEX
  8
0
 10
214.455
 20
77.0325
 30
0.0
 40
0.5
 41
0.5
  0
VERTEX
  8
0
 10
214.455
 20
76.0906
 30
0.0
 40
0.5
 41
0.5
  0
VERTEX
  8
0
 10
214.169
 20
76.0906
 30
0.0
 40
0.5
 41
0.5
  0
VERTEX
  8
0
 10
214.169
 20
77.0356
 30
0.0
 40
0.5
 41
0.5
  0
VERTEX
  8
0
 10
214.092
 20
77.2065
 30
0.0
 40
0.5
 41
0.5
  0
VERTEX
  8
0
 10
213.917
 20
77.2876
 30
0.0
 40
0.5
 41
0.5
  0
VERTEX
  8
0
 10
213.89
 20
77.292
 30
0.0
 40
0.5
 41
0.5
  0
VERTEX
  8
0
 10
213.864
 20
77.2935
 30
0.0
 40
0.5
 41
0.5
  0
VERTEX
  8
0
 10
213.859
 20
77.2935
 30
0.0
 40
0.5
 41
0.5
  0
VERTEX
  8
0
 10
213.854
 20
77.2935
 30
0.0
 40
0.5
 41
0.5
  0
VERTEX
  8
0
 10
213.633
 20
77.1946
 30
0.0
 40
0.5
 41
0.5
  0
VERTEX
  8
0
 10
213.531
 20
76.8916
 30
0.0
 40
0.5
 41
0.5
  0
VERTEX
  8
0
 10
213.531
 20
76.0906
 30
0.0
 40
0.5
 41
0.5
  0
VERTEX
  8
0
 10
213.249
 20
76.0906
 30
0.0
 40
0.5
 41
0.5
  0
VERTEX
  8
0
 10
213.249
 20
77.4856
 30
0.0
 40
0.5
 41
0.5
  0
VERTEX
  8
0
 10
213.51
 20
77.4856
 30
0.0
 40
0.5
 41
0.5
  0
SEQEND
  8
0
  0
POLYLINE
8
0
 62
     0
 66
     1
 10
0
 20
0
 30
0.0
 70
     1
 40
0.5
 41
0.5
  0
VERTEX
  8
0
 10
224.167
 20
77.6025
 30
0.0
 40
0.5
 41
0.5
  0
VERTEX
  8
0
 10
224.452
 20
77.6025
 30
0.0
 40
0.5
 41
0.5
  0
VERTEX
  8
0
 10
224.452
 20
76.9875
 30
0.0
 40
0.5
 41
0.5
  0
VERTEX
  8
0
 10
225.088
 20
76.9875
 30
0.0
 40
0.5
 41
0.5
  0
VERTEX
  8
0
 10
225.088
 20
76.7295
 30
0.0
 40
0.5
 41
0.5
  0
VERTEX
  8
0
 10
224.452
 20
76.7295
 30
0.0
 40
0.5
 41
0.5
  0
VERTEX
  8
0
 10
224.452
 20
76.0906
 30
0.0
 40
0.5
 41
0.5
  0
VERTEX
  8
0
 10
224.167
 20
76.0906
 30
0.0
 40
0.5
 41
0.5
  0
VERTEX
  8
0
 10
224.167
 20
76.7295
 30
0.0
 40
0.5
 41
0.5
  0
VERTEX
  8
0
 10
223.552
 20
76.7295
 30
0.0
 40
0.5
 41
0.5
  0
VERTEX
  8
0
 10
223.552
 20
76.9875
 30
0.0
 40
0.5
 41
0.5
  0
VERTEX
  8
0
 10
224.167
 20
76.9875
 30
0.0
 40
0.5
 41
0.5
  0
VERTEX
  8
0
 10
224.167
 20
77.6025
 30
0.0
 40
0.5
 41
0.5
  0
SEQEND
  8
0
  0
POLYLINE
8
0
 62
     0
 66
     1
 10
0
 20
0
 30
0.0
 70
     1
 40
0.5
 41
0.5
  0
VERTEX
  8
0
 10
225.512
 20
78.0977
 30
0.0
 40
0.5
 41
0.5
  0
VERTEX
  8
0
 10
225.677
 20
78.3826
 30
0.0
 40
0.5
 41
0.5
  0
VERTEX
  8
0
 10
226.175
 20
78.3826
 30
0.0
 40
0.5
 41
0.5
  0
VERTEX
  8
0
 10
226.175
 20
76.0906
 30
0.0
 40
0.5
 41
0.5
  0
VERTEX
  8
0
 10
225.89
 20
76.0906
 30
0.0
 40
0.5
 41
0.5
  0
VERTEX
  8
0
 10
225.89
 20
78.0977
 30
0.0
 40
0.5
 41
0.5
  0
VERTEX
  8
0
 10
225.512
 20
78.0977
 30
0.0
 40
0.5
 41
0.5
  0
SEQEND
  8
0
  0
POLYLINE
8
0
 62
     0
 66
     1
 10
0
 20
0
 30
0.0
 70
     1
 40
0.5
 41
0.5
  0
VERTEX
  8
0
 10
228.039
 20
77.3416
 30
0.0
 40
0.5
 41
0.5
  0
VERTEX
  8
0
 10
228.168
 20
77.5439
 30
0.0
 40
0.5
 41
0.5
  0
VERTEX
  8
0
 10
228.207
 20
77.7256
 30
0.0
 40
0.5
 41
0.5
  0
VERTEX
  8
0
 10
228.086
 20
78.0015
 30
0.0
 40
0.5
 41
0.5
  0
VERTEX
  8
0
 10
227.811
 20
78.1187
 30
0.0
 40
0.5
 41
0.5
  0
VERTEX
  8
0
 10
227.795
 20
78.1187
 30
0.0
 40
0.5
 41
0.5
  0
VERTEX
  8
0
 10
227.778
 20
78.1187
 30
0.0
 40
0.5
 41
0.5
  0
VERTEX
  8
0
 10
227.477
 20
78.0105
 30
0.0
 40
0.5
 41
0.5
  0
VERTEX
  8
0
 10
227.349
 20
77.7734
 30
0.0
 40
0.5
 41
0.5
  0
VERTEX
  8
0
 10
227.349
 20
77.7615
 30
0.0
 40
0.5
 41
0.5
  0
VERTEX
  8
0
 10
227.349
 20
77.7495
 30
0.0
 40
0.5
 41
0.5
  0
VERTEX
  8
0
 10
227.349
 20
77.7419
 30
0.0
 40
0.5
 41
0.5
  0
VERTEX
  8
0
 10
227.352
 20
77.7346
 30
0.0
 40
0.5
 41
0.5
  0
VERTEX
  8
0
 10
227.352
 20
77.7256
 30
0.0
 40
0.5
 41
0.5
  0
VERTEX
  8
0
 10
227.352
 20
77.7166
 30
0.0
 40
0.5
 41
0.5
  0
VERTEX
  8
0
 10
227.046
 20
77.7195
 30
0.0
 40
0.5
 41
0.5
  0
VERTEX
  8
0
 10
227.25
 20
78.1816
 30
0.0
 40
0.5
 41
0.5
  0
VERTEX
  8
0
 10
227.754
 20
78.3796
 30
0.0
 40
0.5
 41
0.5
  0
VERTEX
  8
0
 10
227.772
 20
78.3796
 30
0.0
 40
0.5
 41
0.5
  0
VERTEX
  8
0
 10
227.79
 20
78.3796
 30
0.0
 40
0.5
 41
0.5
  0
VERTEX
  8
0
 10
228.321
 20
78.1921
 30
0.0
 40
0.5
 41
0.5
  0
VERTEX
  8
0
 10
228.522
 20
77.7375
 30
0.0
 40
0.5
 41
0.5
  0
VERTEX
  8
0
 10
228.507
 20
77.5981
 30
0.0
 40
0.5
 41
0.5
  0
VERTEX
  8
0
 10
228.459
 20
77.4585
 30
0.0
 40
0.5
 41
0.5
  0
VERTEX
  8
0
 10
228.401
 20
77.3506
 30
0.0
 40
0.5
 41
0.5
  0
VERTEX
  8
0
 10
228.321
 20
77.2456
 30
0.0
 40
0.5
 41
0.5
  0
VERTEX
  8
0
 10
227.565
 20
76.3516
 30
0.0
 40
0.5
 41
0.5
  0
VERTEX
  8
0
 10
228.486
 20
76.3516
 30
0.0
 40
0.5
 41
0.5
  0
VERTEX
  8
0
 10
228.486
 20
76.0906
 30
0.0
 40
0.5
 41
0.5
  0
VERTEX
  8
0
 10
227.022
 20
76.0906
 30
0.0
 40
0.5
 41
0.5
  0
VERTEX
  8
0
 10
228.039
 20
77.3416
 30
0.0
 40
0.5
 41
0.5
  0
SEQEND
  8
0
  0
POLYLINE
8
0
 62
     0
 66
     1
 10
0
 20
0
 30
0.0
 70
     1
 40
0.5
 41
0.5
  0
VERTEX
  8
0
 10
230.092
 20
78.7126
 30
0.0
 40
0.5
 41
0.5
  0
VERTEX
  8
0
 10
230.092
 20
76.0906
 30
0.0
 40
0.5
 41
0.5
  0
VERTEX
  8
0
 10
229.831
 20
76.0906
 30
0.0
 40
0.5
 41
0.5
  0
VERTEX
  8
0
 10
229.831
 20
76.3276
 30
0.0
 40
0.5
 41
0.5
  0
VERTEX
  8
0
 10
229.732
 20
76.197
 30
0.0
 40
0.5
 41
0.5
  0
VERTEX
  8
0
 10
229.624
 20
76.1116
 30
0.0
 40
0.5
 41
0.5
  0
VERTEX
  8
0
 10
229.48
 20
76.0576
 30
0.0
 40
0.5
 41
0.5
  0
VERTEX
  8
0
 10
229.36
 20
76.0425
 30
0.0
 40
0.5
 41
0.5
  0
VERTEX
  8
0
 10
229.342
 20
76.0425
 30
0.0
 40
0.5
 41
0.5
  0
VERTEX
  8
0
 10
229.324
 20
76.0425
 30
0.0
 40
0.5
 41
0.5
  0
VERTEX
  8
0
 10
228.91
 20
76.1851
 30
0.0
 40
0.5
 41
0.5
  0
VERTEX
  8
0
 10
228.697
 20
76.5076
 30
0.0
 40
0.5
 41
0.5
  0
VERTEX
  8
0
 10
228.663
 20
76.644
 30
0.0
 40
0.5
 41
0.5
  0
VERTEX
  8
0
 10
228.652
 20
76.7715
 30
0.0
 40
0.5
 41
0.5
  0
VERTEX
  8
0
 10
228.846
 20
77.3401
 30
0.0
 40
0.5
 41
0.5
  0
VERTEX
  8
0
 10
229.273
 20
77.5486
 30
0.0
 40
0.5
 41
0.5
  0
VERTEX
  8
0
 10
229.305
 20
77.5515
 30
0.0
 40
0.5
 41
0.5
  0
VERTEX
  8
0
 10
229.336
 20
77.5515
 30
0.0
 40
0.5
 41
0.5
  0
VERTEX
  8
0
 10
229.411
 20
77.5471
 30
0.0
 40
0.5
 41
0.5
  0
VERTEX
  8
0
 10
229.489
 20
77.5334
 30
0.0
 40
0.5
 41
0.5
  0
VERTEX
  8
0
 10
229.671
 20
77.4526
 30
0.0
 40
0.5
 41
0.5
  0
VERTEX
  8
0
 10
229.81
 20
77.2935
 30
0.0
 40
0.5
 41
0.5
  0
VERTEX
  8
0
 10
229.81
 20
78.7126
 30
0.0
 40
0.5
 41
0.5
  0
VERTEX
  8
0
 10
230.092
 20
78.7126
 30
0.0
 40
0.5
 41
0.5
  0
SEQEND
  8
0
  0
POLYLINE
8
0
 62
     0
 66
     1
 10
0
 20
0
 30
0.0
 70
     1
 40
0.5
 41
0.5
  0
VERTEX
  8
0
 10
229.81
 20
76.8225
 30
0.0
 40
0.5
 41
0.5
  0
VERTEX
  8
0
 10
229.704
 20
77.1826
 30
0.0
 40
0.5
 41
0.5
  0
VERTEX
  8
0
 10
229.384
 20
77.3145
 30
0.0
 40
0.5
 41
0.5
  0
VERTEX
  8
0
 10
229.08
 20
77.187
 30
0.0
 40
0.5
 41
0.5
  0
VERTEX
  8
0
 10
228.946
 20
76.9065
 30
0.0
 40
0.5
 41
0.5
  0
VERTEX
  8
0
 10
228.937
 20
76.8391
 30
0.0
 40
0.5
 41
0.5
  0
VERTEX
  8
0
 10
228.934
 20
76.7715
 30
0.0
 40
0.5
 41
0.5
  0
VERTEX
  8
0
 10
228.943
 20
76.677
 30
0.0
 40
0.5
 41
0.5
  0
VERTEX
  8
0
 10
228.973
 20
76.5706
 30
0.0
 40
0.5
 41
0.5
  0
VERTEX
  8
0
 10
229.11
 20
76.3679
 30
0.0
 40
0.5
 41
0.5
  0
VERTEX
  8
0
 10
229.384
 20
76.2766
 30
0.0
 40
0.5
 41
0.5
  0
VERTEX
  8
0
 10
229.68
 20
76.4041
 30
0.0
 40
0.5
 41
0.5
  0
VERTEX
  8
0
 10
229.798
 20
76.6846
 30
0.0
 40
0.5
 41
0.5
  0
VERTEX
  8
0
 10
229.807
 20
76.752
 30
0.0
 40
0.5
 41
0.5
  0
VERTEX
  8
0
 10
229.81
 20
76.8196
 30
0.0
 40
0.5
 41
0.5
  0
VERTEX
  8
0
 10
229.81
 20
76.8225
 30
0.0
 40
0.5
 41
0.5
  0
SEQEND
  8
0
  0
POLYLINE
8
0
 62
     0
 66
     1
 10
0
 20
0
 30
0.0
 70
     1
 40
0.5
 41
0.5
  0
VERTEX
  8
0
 10
230.73
 20
78.3345
 30
0.0
 40
0.5
 41
0.5
  0
VERTEX
  8
0
 10
230.843
 20
78.3315
 30
0.0
 40
0.5
 41
0.5
  0
VERTEX
  8
0
 10
230.961
 20
78.3254
 30
0.0
 40
0.5
 41
0.5
  0
VERTEX
  8
0
 10
231.375
 20
78.2175
 30
0.0
 40
0.5
 41
0.5
  0
VERTEX
  8
0
 10
231.58
 20
77.8125
 30
0.0
 40
0.5
 41
0.5
  0
VERTEX
  8
0
 10
231.509
 20
77.4929
 30
0.0
 40
0.5
 41
0.5
  0
VERTEX
  8
0
 10
231.298
 20
77.3145
 30
0.0
 40
0.5
 41
0.5
  0
VERTEX
  8
0
 10
231.331
 20
77.3115
 30
0.0
 40
0.5
 41
0.5
  0
VERTEX
  8
0
 10
231.364
 20
77.3025
 30
0.0
 40
0.5
 41
0.5
  0
VERTEX
  8
0
 10
231.659
 20
77.1016
 30
0.0
 40
0.5
 41
0.5
  0
VERTEX
  8
0
 10
231.792
 20
76.7026
 30
0.0
 40
0.5
 41
0.5
  0
VERTEX
  8
0
 10
231.557
 20
76.2466
 30
0.0
 40
0.5
 41
0.5
  0
VERTEX
  8
0
 10
230.965
 20
76.0906
 30
0.0
 40
0.5
 41
0.5
  0
VERTEX
  8
0
 10
230.446
 20
76.0906
 30
0.0
 40
0.5
 41
0.5
  0
VERTEX
  8
0
 10
230.446
 20
78.3345
 30
0.0
 40
0.5
 41
0.5
  0
VERTEX
  8
0
 10
230.73
 20
78.3345
 30
0.0
 40
0.5
 41
0.5
  0
SEQEND
  8
0
  0
POLYLINE
8
0
 62
     0
 66
     1
 10
0
 20
0
 30
0.0
 70
     1
 40
0.5
 41
0.5
  0
VERTEX
  8
0
 10
230.751
 20
77.1526
 30
0.0
 40
0.5
 41
0.5
  0
VERTEX
  8
0
 10
230.751
 20
76.3276
 30
0.0
 40
0.5
 41
0.5
  0
VERTEX
  8
0
 10
230.838
 20
76.3171
 30
0.0
 40
0.5
 41
0.5
  0
VERTEX
  8
0
 10
230.919
 20
76.3125
 30
0.0
 40
0.5
 41
0.5
  0
VERTEX
  8
0
 10
231.252
 20
76.377
 30
0.0
 40
0.5
 41
0.5
  0
VERTEX
  8
0
 10
231.429
 20
76.5195
 30
0.0
 40
0.5
 41
0.5
  0
VERTEX
  8
0
 10
231.473
 20
76.6064
 30
0.0
 40
0.5
 41
0.5
  0
VERTEX
  8
0
 10
231.487
 20
76.6785
 30
0.0
 40
0.5
 41
0.5
  0
VERTEX
  8
0
 10
231.487
 20
76.6965
 30
0.0
 40
0.5
 41
0.5
  0
VERTEX
  8
0
 10
231.487
 20
76.7175
 30
0.0
 40
0.5
 41
0.5
  0
VERTEX
  8
0
 10
231.308
 20
77.0476
 30
0.0
 40
0.5
 41
0.5
  0
VERTEX
  8
0
 10
230.751
 20
77.1497
 30
0.0
 40
0.5
 41
0.5
  0
VERTEX
  8
0
 10
230.751
 20
77.1526
 30
0.0
 40
0.5
 41
0.5
  0
SEQEND
  8
0
  0
POLYLINE
8
0
 62
     0
 66
     1
 10
0
 20
0
 30
0.0
 70
     1
 40
0.5
 41
0.5
  0
VERTEX
  8
0
 10
230.751
 20
78.1216
 30
0.0
 40
0.5
 41
0.5
  0
VERTEX
  8
0
 10
230.751
 20
77.3655
 30
0.0
 40
0.5
 41
0.5
  0
VERTEX
  8
0
 10
230.801
 20
77.3596
 30
0.0
 40
0.5
 41
0.5
  0
VERTEX
  8
0
 10
230.851
 20
77.3596
 30
0.0
 40
0.5
 41
0.5
  0
VERTEX
  8
0
 10
231.184
 20
77.4421
 30
0.0
 40
0.5
 41
0.5
  0
VERTEX
  8
0
 10
231.298
 20
77.7166
 30
0.0
 40
0.5
 41
0.5
  0
VERTEX
  8
0
 10
231.298
 20
77.7241
 30
0.0
 40
0.5
 41
0.5
  0
VERTEX
  8
0
 10
231.298
 20
77.7314
 30
0.0
 40
0.5
 41
0.5
  0
VERTEX
  8
0
 10
231.296
 20
77.7991
 30
0.0
 40
0.5
 41
0.5
  0
VERTEX
  8
0
 10
231.285
 20
77.8755
 30
0.0
 40
0.5
 41
0.5
  0
VERTEX
  8
0
 10
231.167
 20
78.0435
 30
0.0
 40
0.5
 41
0.5
  0
VERTEX
  8
0
 10
230.821
 20
78.1187
 30
0.0
 40
0.5
 41
0.5
  0
VERTEX
  8
0
 10
230.788
 20
78.1187
 30
0.0
 40
0.5
 41
0.5
  0
VERTEX
  8
0
 10
230.751
 20
78.1187
 30
0.0
 40
0.5
 41
0.5
  0
VERTEX
  8
0
 10
230.751
 20
78.1216
 30
0.0
 40
0.5
 41
0.5
  0
SEQEND
  8
0
  0
POLYLINE
8
0
 62
     0
 66
     1
 10
0
 20
0
 30
0.0
 70
     1
 40
0.5
 41
0.5
  0
VERTEX
  8
0
 10
216.976
 20
97.3967
 30
0.0
 40
0.5
 41
0.5
  0
VERTEX
  8
0
 10
216.976
 20
96.9248
 30
0.0
 40
0.5
 41
0.5
  0
VERTEX
  8
0
 10
216.742
 20
96.8408
 30
0.0
 40
0.5
 41
0.5
  0
VERTEX
  8
0
 10
216.488
 20
96.8127
 30
0.0
 40
0.5
 41
0.5
  0
VERTEX
  8
0
 10
216.456
 20
96.8127
 30
0.0
 40
0.5
 41
0.5
  0
VERTEX
  8
0
 10
216.424
 20
96.8127
 30
0.0
 40
0.5
 41
0.5
  0
VERTEX
  8
0
 10
215.764
 20
97.0728
 30
0.0
 40
0.5
 41
0.5
  0
VERTEX
  8
0
 10
215.464
 20
97.8008
 30
0.0
 40
0.5
 41
0.5
  0
VERTEX
  8
0
 10
215.77
 20
98.5808
 30
0.0
 40
0.5
 41
0.5
  0
VERTEX
  8
0
 10
216.464
 20
98.8367
 30
0.0
 40
0.5
 41
0.5
  0
VERTEX
  8
0
 10
216.74
 20
98.8088
 30
0.0
 40
0.5
 41
0.5
  0
VERTEX
  8
0
 10
217.004
 20
98.7168
 30
0.0
 40
0.5
 41
0.5
  0
VERTEX
  8
0
 10
217.004
 20
98.2488
 30
0.0
 40
0.5
 41
0.5
  0
VERTEX
  8
0
 10
216.902
 20
98.3508
 30
0.0
 40
0.5
 41
0.5
  0
VERTEX
  8
0
 10
216.796
 20
98.4209
 30
0.0
 40
0.5
 41
0.5
  0
VERTEX
  8
0
 10
216.586
 20
98.4868
 30
0.0
 40
0.5
 41
0.5
  0
VERTEX
  8
0
 10
216.44
 20
98.4968
 30
0.0
 40
0.5
 41
0.5
  0
VERTEX
  8
0
 10
215.982
 20
98.2708
 30
0.0
 40
0.5
 41
0.5
  0
VERTEX
  8
0
 10
215.824
 20
97.8328
 30
0.0
 40
0.5
 41
0.5
  0
VERTEX
  8
0
 10
215.824
 20
97.8267
 30
0.0
 40
0.5
 41
0.5
  0
VERTEX
  8
0
 10
215.824
 20
97.8208
 30
0.0
 40
0.5
 41
0.5
  0
VERTEX
  8
0
 10
215.974
 20
97.3748
 30
0.0
 40
0.5
 41
0.5
  0
VERTEX
  8
0
 10
216.412
 20
97.1729
 30
0.0
 40
0.5
 41
0.5
  0
VERTEX
  8
0
 10
216.426
 20
97.1729
 30
0.0
 40
0.5
 41
0.5
  0
VERTEX
  8
0
 10
216.44
 20
97.1729
 30
0.0
 40
0.5
 41
0.5
  0
VERTEX
  8
0
 10
216.61
 20
97.1907
 30
0.0
 40
0.5
 41
0.5
  0
VERTEX
  8
0
 10
216.888
 20
97.3208
 30
0.0
 40
0.5
 41
0.5
  0
VERTEX
  8
0
 10
216.934
 20
97.3547
 30
0.0
 40
0.5
 41
0.5
  0
VERTEX
  8
0
 10
216.976
 20
97.3928
 30
0.0
 40
0.5
 41
0.5
  0
VERTEX
  8
0
 10
216.976
 20
97.3967
 30
0.0
 40
0.5
 41
0.5
  0
SEQEND
  8
0
  0
POLYLINE
8
0
 62
     0
 66
     1
 10
0
 20
0
 30
0.0
 70
     1
 40
0.5
 41
0.5
  0
VERTEX
  8
0
 10
217.701
 20
100.357
 30
0.0
 40
0.5
 41
0.5
  0
VERTEX
  8
0
 10
217.701
 20
98.5288
 30
0.0
 40
0.5
 41
0.5
  0
VERTEX
  8
0
 10
217.947
 20
98.7549
 30
0.0
 40
0.5
 41
0.5
  0
VERTEX
  8
0
 10
218.265
 20
98.8408
 30
0.0
 40
0.5
 41
0.5
  0
VERTEX
  8
0
 10
218.739
 20
98.6926
 30
0.0
 40
0.5
 41
0.5
  0
VERTEX
  8
0
 10
218.929
 20
98.1169
 30
0.0
 40
0.5
 41
0.5
  0
VERTEX
  8
0
 10
218.929
 20
96.8928
 30
0.0
 40
0.5
 41
0.5
  0
VERTEX
  8
0
 10
218.581
 20
96.8928
 30
0.0
 40
0.5
 41
0.5
  0
VERTEX
  8
0
 10
218.581
 20
98.1208
 30
0.0
 40
0.5
 41
0.5
  0
VERTEX
  8
0
 10
218.471
 20
98.4128
 30
0.0
 40
0.5
 41
0.5
  0
VERTEX
  8
0
 10
218.173
 20
98.4968
 30
0.0
 40
0.5
 41
0.5
  0
VERTEX
  8
0
 10
217.807
 20
98.3586
 30
0.0
 40
0.5
 41
0.5
  0
VERTEX
  8
0
 10
217.701
 20
97.9607
 30
0.0
 40
0.5
 41
0.5
  0
VERTEX
  8
0
 10
217.701
 20
96.8928
 30
0.0
 40
0.5
 41
0.5
  0
VERTEX
  8
0
 10
217.321
 20
96.8928
 30
0.0
 40
0.5
 41
0.5
  0
VERTEX
  8
0
 10
217.321
 20
100.357
 30
0.0
 40
0.5
 41
0.5
  0
VERTEX
  8
0
 10
217.701
 20
100.357
 30
0.0
 40
0.5
 41
0.5
  0
SEQEND
  8
0
  0
POLYLINE
8
0
 62
     0
 66
     1
 10
0
 20
0
 30
0.0
 70
     1
 40
0.5
 41
0.5
  0
VERTEX
  8
0
 10
220.315
 20
98.3408
 30
0.0
 40
0.5
 41
0.5
  0
VERTEX
  8
0
 10
220.315
 20
98.0247
 30
0.0
 40
0.5
 41
0.5
  0
VERTEX
  8
0
 10
219.431
 20
98.0247
 30
0.0
 40
0.5
 41
0.5
  0
VERTEX
  8
0
 10
219.431
 20
98.3408
 30
0.0
 40
0.5
 41
0.5
  0
VERTEX
  8
0
 10
220.315
 20
98.3408
 30
0.0
 40
0.5
 41
0.5
  0
SEQEND
  8
0
  0
POLYLINE
8
0
 62
     0
 66
     1
 10
0
 20
0
 30
0.0
 70
     1
 40
0.5
 41
0.5
  0
VERTEX
  8
0
 10
222.082
 20
98.5608
 30
0.0
 40
0.5
 41
0.5
  0
VERTEX
  8
0
 10
222.254
 20
98.8308
 30
0.0
 40
0.5
 41
0.5
  0
VERTEX
  8
0
 10
222.306
 20
99.0728
 30
0.0
 40
0.5
 41
0.5
  0
VERTEX
  8
0
 10
222.144
 20
99.4407
 30
0.0
 40
0.5
 41
0.5
  0
VERTEX
  8
0
 10
221.778
 20
99.5967
 30
0.0
 40
0.5
 41
0.5
  0
VERTEX
  8
0
 10
221.756
 20
99.5967
 30
0.0
 40
0.5
 41
0.5
  0
VERTEX
  8
0
 10
221.734
 20
99.5967
 30
0.0
 40
0.5
 41
0.5
  0
VERTEX
  8
0
 10
221.332
 20
99.4529
 30
0.0
 40
0.5
 41
0.5
  0
VERTEX
  8
0
 10
221.162
 20
99.1367
 30
0.0
 40
0.5
 41
0.5
  0
VERTEX
  8
0
 10
221.162
 20
99.1208
 30
0.0
 40
0.5
 41
0.5
  0
VERTEX
  8
0
 10
221.162
 20
99.1047
 30
0.0
 40
0.5
 41
0.5
  0
VERTEX
  8
0
 10
221.162
 20
99.0947
 30
0.0
 40
0.5
 41
0.5
  0
VERTEX
  8
0
 10
221.166
 20
99.0847
 30
0.0
 40
0.5
 41
0.5
  0
VERTEX
  8
0
 10
221.166
 20
99.0728
 30
0.0
 40
0.5
 41
0.5
  0
VERTEX
  8
0
 10
221.166
 20
99.0608
 30
0.0
 40
0.5
 41
0.5
  0
VERTEX
  8
0
 10
220.758
 20
99.0647
 30
0.0
 40
0.5
 41
0.5
  0
VERTEX
  8
0
 10
221.03
 20
99.6807
 30
0.0
 40
0.5
 41
0.5
  0
VERTEX
  8
0
 10
221.702
 20
99.9448
 30
0.0
 40
0.5
 41
0.5
  0
VERTEX
  8
0
 10
221.726
 20
99.9448
 30
0.0
 40
0.5
 41
0.5
  0
VERTEX
  8
0
 10
221.75
 20
99.9448
 30
0.0
 40
0.5
 41
0.5
  0
VERTEX
  8
0
 10
222.458
 20
99.6948
 30
0.0
 40
0.5
 41
0.5
  0
VERTEX
  8
0
 10
222.726
 20
99.0889
 30
0.0
 40
0.5
 41
0.5
  0
VERTEX
  8
0
 10
222.706
 20
98.9028
 30
0.0
 40
0.5
 41
0.5
  0
VERTEX
  8
0
 10
222.642
 20
98.7168
 30
0.0
 40
0.5
 41
0.5
  0
VERTEX
  8
0
 10
222.564
 20
98.5728
 30
0.0
 40
0.5
 41
0.5
  0
VERTEX
  8
0
 10
222.458
 20
98.4326
 30
0.0
 40
0.5
 41
0.5
  0
VERTEX
  8
0
 10
221.45
 20
97.2407
 30
0.0
 40
0.5
 41
0.5
  0
VERTEX
  8
0
 10
222.678
 20
97.2407
 30
0.0
 40
0.5
 41
0.5
  0
VERTEX
  8
0
 10
222.678
 20
96.8928
 30
0.0
 40
0.5
 41
0.5
  0
VERTEX
  8
0
 10
220.726
 20
96.8928
 30
0.0
 40
0.5
 41
0.5
  0
VERTEX
  8
0
 10
222.082
 20
98.5608
 30
0.0
 40
0.5
 41
0.5
  0
SEQEND
  8
0
  0
POLYLINE
8
0
 62
     0
 66
     1
 10
0
 20
0
 30
0.0
 70
     1
 40
0.5
 41
0.5
  0
VERTEX
  8
0
 10
216.646
 20
91.6387
 30
0.0
 40
0.5
 41
0.5
  0
VERTEX
  8
0
 10
216.643
 20
91.6582
 30
0.0
 40
0.5
 41
0.5
  0
VERTEX
  8
0
 10
216.643
 20
91.6838
 30
0.0
 40
0.5
 41
0.5
  0
VERTEX
  8
0
 10
216.666
 20
91.9116
 30
0.0
 40
0.5
 41
0.5
  0
VERTEX
  8
0
 10
216.745
 20
92.2117
 30
0.0
 40
0.5
 41
0.5
  0
VERTEX
  8
0
 10
216.988
 20
92.6287
 30
0.0
 40
0.5
 41
0.5
  0
VERTEX
  8
0
 10
217.423
 20
92.8176
 30
0.0
 40
0.5
 41
0.5
  0
VERTEX
  8
0
 10
217.99
 20
92.5012
 30
0.0
 40
0.5
 41
0.5
  0
VERTEX
  8
0
 10
218.221
 20
91.8066
 30
0.0
 40
0.5
 41
0.5
  0
VERTEX
  8
0
 10
218.226
 20
91.7451
 30
0.0
 40
0.5
 41
0.5
  0
VERTEX
  8
0
 10
218.227
 20
91.6838
 30
0.0
 40
0.5
 41
0.5
  0
VERTEX
  8
0
 10
218.218
 20
91.4946
 30
0.0
 40
0.5
 41
0.5
  0
VERTEX
  8
0
 10
218.191
 20
91.2937
 30
0.0
 40
0.5
 41
0.5
  0
VERTEX
  8
0
 10
217.957
 20
90.7178
 30
0.0
 40
0.5
 41
0.5
  0
VERTEX
  8
0
 10
217.447
 20
90.4568
 30
0.0
 40
0.5
 41
0.5
  0
VERTEX
  8
0
 10
216.969
 20
90.6563
 30
0.0
 40
0.5
 41
0.5
  0
VERTEX
  8
0
 10
216.727
 20
91.0957
 30
0.0
 40
0.5
 41
0.5
  0
VERTEX
  8
0
 10
216.663
 20
91.4001
 30
0.0
 40
0.5
 41
0.5
  0
VERTEX
  8
0
 10
216.646
 20
91.6357
 30
0.0
 40
0.5
 41
0.5
  0
VERTEX
  8
0
 10
216.646
 20
91.6387
 30
0.0
 40
0.5
 41
0.5
  0
SEQEND
  8
0
  0
POLYLINE
8
0
 62
     0
 66
     1
 10
0
 20
0
 30
0.0
 70
     1
 40
0.5
 41
0.5
  0
VERTEX
  8
0
 10
217.945
 20
91.6628
 30
0.0
 40
0.5
 41
0.5
  0
VERTEX
  8
0
 10
217.828
 20
92.2568
 30
0.0
 40
0.5
 41
0.5
  0
VERTEX
  8
0
 10
217.573
 20
92.5479
 30
0.0
 40
0.5
 41
0.5
  0
VERTEX
  8
0
 10
217.521
 20
92.5703
 30
0.0
 40
0.5
 41
0.5
  0
VERTEX
  8
0
 10
217.471
 20
92.5808
 30
0.0
 40
0.5
 41
0.5
  0
VERTEX
  8
0
 10
217.461
 20
92.5823
 30
0.0
 40
0.5
 41
0.5
  0
VERTEX
  8
0
 10
217.45
 20
92.5837
 30
0.0
 40
0.5
 41
0.5
  0
VERTEX
  8
0
 10
217.44
 20
92.5837
 30
0.0
 40
0.5
 41
0.5
  0
VERTEX
  8
0
 10
217.429
 20
92.5837
 30
0.0
 40
0.5
 41
0.5
  0
VERTEX
  8
0
 10
217.131
 20
92.4128
 30
0.0
 40
0.5
 41
0.5
  0
VERTEX
  8
0
 10
216.976
 20
92.0378
 30
0.0
 40
0.5
 41
0.5
  0
VERTEX
  8
0
 10
216.939
 20
91.8203
 30
0.0
 40
0.5
 41
0.5
  0
VERTEX
  8
0
 10
216.928
 20
91.6357
 30
0.0
 40
0.5
 41
0.5
  0
VERTEX
  8
0
 10
216.94
 20
91.4558
 30
0.0
 40
0.5
 41
0.5
  0
VERTEX
  8
0
 10
216.979
 20
91.2427
 30
0.0
 40
0.5
 41
0.5
  0
VERTEX
  8
0
 10
217.134
 20
90.8796
 30
0.0
 40
0.5
 41
0.5
  0
VERTEX
  8
0
 10
217.423
 20
90.7148
 30
0.0
 40
0.5
 41
0.5
  0
VERTEX
  8
0
 10
217.818
 20
90.9922
 30
0.0
 40
0.5
 41
0.5
  0
VERTEX
  8
0
 10
217.945
 20
91.6597
 30
0.0
 40
0.5
 41
0.5
  0
VERTEX
  8
0
 10
217.945
 20
91.6628
 30
0.0
 40
0.5
 41
0.5
  0
SEQEND
  8
0
  0
POLYLINE
8
0
 62
     0
 66
     1
 10
0
 20
0
 30
0.0
 70
     1
 40
0.5
 41
0.5
  0
VERTEX
  8
0
 10
219.785
 20
93.1267
 30
0.0
 40
0.5
 41
0.5
  0
VERTEX
  8
0
 10
219.785
 20
90.5046
 30
0.0
 40
0.5
 41
0.5
  0
VERTEX
  8
0
 10
219.524
 20
90.5046
 30
0.0
 40
0.5
 41
0.5
  0
VERTEX
  8
0
 10
219.524
 20
90.7417
 30
0.0
 40
0.5
 41
0.5
  0
VERTEX
  8
0
 10
219.425
 20
90.6113
 30
0.0
 40
0.5
 41
0.5
  0
VERTEX
  8
0
 10
219.317
 20
90.5256
 30
0.0
 40
0.5
 41
0.5
  0
VERTEX
  8
0
 10
219.173
 20
90.4717
 30
0.0
 40
0.5
 41
0.5
  0
VERTEX
  8
0
 10
219.053
 20
90.4568
 30
0.0
 40
0.5
 41
0.5
  0
VERTEX
  8
0
 10
219.035
 20
90.4568
 30
0.0
 40
0.5
 41
0.5
  0
VERTEX
  8
0
 10
219.017
 20
90.4568
 30
0.0
 40
0.5
 41
0.5
  0
VERTEX
  8
0
 10
218.604
 20
90.5991
 30
0.0
 40
0.5
 41
0.5
  0
VERTEX
  8
0
 10
218.39
 20
90.9216
 30
0.0
 40
0.5
 41
0.5
  0
VERTEX
  8
0
 10
218.356
 20
91.0583
 30
0.0
 40
0.5
 41
0.5
  0
VERTEX
  8
0
 10
218.345
 20
91.1858
 30
0.0
 40
0.5
 41
0.5
  0
VERTEX
  8
0
 10
218.539
 20
91.7542
 30
0.0
 40
0.5
 41
0.5
  0
VERTEX
  8
0
 10
218.966
 20
91.9626
 30
0.0
 40
0.5
 41
0.5
  0
VERTEX
  8
0
 10
218.998
 20
91.9658
 30
0.0
 40
0.5
 41
0.5
  0
VERTEX
  8
0
 10
219.029
 20
91.9658
 30
0.0
 40
0.5
 41
0.5
  0
VERTEX
  8
0
 10
219.104
 20
91.9612
 30
0.0
 40
0.5
 41
0.5
  0
VERTEX
  8
0
 10
219.182
 20
91.9478
 30
0.0
 40
0.5
 41
0.5
  0
VERTEX
  8
0
 10
219.364
 20
91.8667
 30
0.0
 40
0.5
 41
0.5
  0
VERTEX
  8
0
 10
219.503
 20
91.7078
 30
0.0
 40
0.5
 41
0.5
  0
VERTEX
  8
0
 10
219.503
 20
93.1267
 30
0.0
 40
0.5
 41
0.5
  0
VERTEX
  8
0
 10
219.785
 20
93.1267
 30
0.0
 40
0.5
 41
0.5
  0
SEQEND
  8
0
  0
POLYLINE
8
0
 62
     0
 66
     1
 10
0
 20
0
 30
0.0
 70
     1
 40
0.5
 41
0.5
  0
VERTEX
  8
0
 10
219.503
 20
91.2368
 30
0.0
 40
0.5
 41
0.5
  0
VERTEX
  8
0
 10
219.397
 20
91.5967
 30
0.0
 40
0.5
 41
0.5
  0
VERTEX
  8
0
 10
219.077
 20
91.7288
 30
0.0
 40
0.5
 41
0.5
  0
VERTEX
  8
0
 10
218.773
 20
91.6013
 30
0.0
 40
0.5
 41
0.5
  0
VERTEX
  8
0
 10
218.639
 20
91.3208
 30
0.0
 40
0.5
 41
0.5
  0
VERTEX
  8
0
 10
218.63
 20
91.2532
 30
0.0
 40
0.5
 41
0.5
  0
VERTEX
  8
0
 10
218.627
 20
91.1858
 30
0.0
 40
0.5
 41
0.5
  0
VERTEX
  8
0
 10
218.636
 20
91.0913
 30
0.0
 40
0.5
 41
0.5
  0
VERTEX
  8
0
 10
218.667
 20
90.9846
 30
0.0
 40
0.5
 41
0.5
  0
VERTEX
  8
0
 10
218.803
 20
90.7822
 30
0.0
 40
0.5
 41
0.5
  0
VERTEX
  8
0
 10
219.077
 20
90.6907
 30
0.0
 40
0.5
 41
0.5
  0
VERTEX
  8
0
 10
219.373
 20
90.8184
 30
0.0
 40
0.5
 41
0.5
  0
VERTEX
  8
0
 10
219.491
 20
91.0986
 30
0.0
 40
0.5
 41
0.5
  0
VERTEX
  8
0
 10
219.5
 20
91.1663
 30
0.0
 40
0.5
 41
0.5
  0
VERTEX
  8
0
 10
219.503
 20
91.2336
 30
0.0
 40
0.5
 41
0.5
  0
VERTEX
  8
0
 10
219.503
 20
91.2368
 30
0.0
 40
0.5
 41
0.5
  0
SEQEND
  8
0
  0
POLYLINE
8
0
 62
     0
 66
     1
 10
0
 20
0
 30
0.0
 70
     1
 40
0.5
 41
0.5
  0
VERTEX
  8
0
 10
220.424
 20
92.7488
 30
0.0
 40
0.5
 41
0.5
  0
VERTEX
  8
0
 10
220.536
 20
92.7458
 30
0.0
 40
0.5
 41
0.5
  0
VERTEX
  8
0
 10
220.655
 20
92.7397
 30
0.0
 40
0.5
 41
0.5
  0
VERTEX
  8
0
 10
221.069
 20
92.6318
 30
0.0
 40
0.5
 41
0.5
  0
VERTEX
  8
0
 10
221.273
 20
92.2268
 30
0.0
 40
0.5
 41
0.5
  0
VERTEX
  8
0
 10
221.202
 20
91.9072
 30
0.0
 40
0.5
 41
0.5
  0
VERTEX
  8
0
 10
220.99
 20
91.7288
 30
0.0
 40
0.5
 41
0.5
  0
VERTEX
  8
0
 10
221.024
 20
91.7258
 30
0.0
 40
0.5
 41
0.5
  0
VERTEX
  8
0
 10
221.057
 20
91.7168
 30
0.0
 40
0.5
 41
0.5
  0
VERTEX
  8
0
 10
221.352
 20
91.5156
 30
0.0
 40
0.5
 41
0.5
  0
VERTEX
  8
0
 10
221.486
 20
91.1167
 30
0.0
 40
0.5
 41
0.5
  0
VERTEX
  8
0
 10
221.25
 20
90.6606
 30
0.0
 40
0.5
 41
0.5
  0
VERTEX
  8
0
 10
220.658
 20
90.5046
 30
0.0
 40
0.5
 41
0.5
  0
VERTEX
  8
0
 10
220.139
 20
90.5046
 30
0.0
 40
0.5
 41
0.5
  0
VERTEX
  8
0
 10
220.139
 20
92.7488
 30
0.0
 40
0.5
 41
0.5
  0
VERTEX
  8
0
 10
220.424
 20
92.7488
 30
0.0
 40
0.5
 41
0.5
  0
SEQEND
  8
0
  0
POLYLINE
8
0
 62
     0
 66
     1
 10
0
 20
0
 30
0.0
 70
     1
 40
0.5
 41
0.5
  0
VERTEX
  8
0
 10
220.445
 20
91.5667
 30
0.0
 40
0.5
 41
0.5
  0
VERTEX
  8
0
 10
220.445
 20
90.7417
 30
0.0
 40
0.5
 41
0.5
  0
VERTEX
  8
0
 10
220.531
 20
90.7312
 30
0.0
 40
0.5
 41
0.5
  0
VERTEX
  8
0
 10
220.613
 20
90.7268
 30
0.0
 40
0.5
 41
0.5
  0
VERTEX
  8
0
 10
220.946
 20
90.7913
 30
0.0
 40
0.5
 41
0.5
  0
VERTEX
  8
0
 10
221.123
 20
90.9338
 30
0.0
 40
0.5
 41
0.5
  0
VERTEX
  8
0
 10
221.166
 20
91.0208
 30
0.0
 40
0.5
 41
0.5
  0
VERTEX
  8
0
 10
221.18
 20
91.0928
 30
0.0
 40
0.5
 41
0.5
  0
VERTEX
  8
0
 10
221.18
 20
91.1108
 30
0.0
 40
0.5
 41
0.5
  0
VERTEX
  8
0
 10
221.18
 20
91.1318
 30
0.0
 40
0.5
 41
0.5
  0
VERTEX
  8
0
 10
221.001
 20
91.4617
 30
0.0
 40
0.5
 41
0.5
  0
VERTEX
  8
0
 10
220.445
 20
91.5637
 30
0.0
 40
0.5
 41
0.5
  0
VERTEX
  8
0
 10
220.445
 20
91.5667
 30
0.0
 40
0.5
 41
0.5
  0
SEQEND
  8
0
  0
POLYLINE
8
0
 62
     0
 66
     1
 10
0
 20
0
 30
0.0
 70
     1
 40
0.5
 41
0.5
  0
VERTEX
  8
0
 10
220.445
 20
92.5356
 30
0.0
 40
0.5
 41
0.5
  0
VERTEX
  8
0
 10
220.445
 20
91.7798
 30
0.0
 40
0.5
 41
0.5
  0
VERTEX
  8
0
 10
220.494
 20
91.7737
 30
0.0
 40
0.5
 41
0.5
  0
VERTEX
  8
0
 10
220.544
 20
91.7737
 30
0.0
 40
0.5
 41
0.5
  0
VERTEX
  8
0
 10
220.877
 20
91.8562
 30
0.0
 40
0.5
 41
0.5
  0
VERTEX
  8
0
 10
220.99
 20
92.1309
 30
0.0
 40
0.5
 41
0.5
  0
VERTEX
  8
0
 10
220.99
 20
92.1382
 30
0.0
 40
0.5
 41
0.5
  0
VERTEX
  8
0
 10
220.99
 20
92.1458
 30
0.0
 40
0.5
 41
0.5
  0
VERTEX
  8
0
 10
220.989
 20
92.2131
 30
0.0
 40
0.5
 41
0.5
  0
VERTEX
  8
0
 10
220.979
 20
92.2898
 30
0.0
 40
0.5
 41
0.5
  0
VERTEX
  8
0
 10
220.86
 20
92.4578
 30
0.0
 40
0.5
 41
0.5
  0
VERTEX
  8
0
 10
220.514
 20
92.5327
 30
0.0
 40
0.5
 41
0.5
  0
VERTEX
  8
0
 10
220.481
 20
92.5327
 30
0.0
 40
0.5
 41
0.5
  0
VERTEX
  8
0
 10
220.445
 20
92.5327
 30
0.0
 40
0.5
 41
0.5
  0
VERTEX
  8
0
 10
220.445
 20
92.5356
 30
0.0
 40
0.5
 41
0.5
  0
SEQEND
  8
0
  0
POLYLINE
8
0
 62
     0
 66
     1
 10
0
 20
0
 30
0.0
 70
     1
 40
0.5
 41
0.5
  0
VERTEX
  8
0
 10
250.132
 20
77.3416
 30
0.0
 40
0.5
 41
0.5
  0
VERTEX
  8
0
 10
250.156
 20
77.3806
 30
0.0
 40
0.5
 41
0.5
  0
VERTEX
  8
0
 10
250.203
 20
77.4375
 30
0.0
 40
0.5
 41
0.5
  0
VERTEX
  8
0
 10
250.322
 20
77.5156
 30
0.0
 40
0.5
 41
0.5
  0
VERTEX
  8
0
 10
250.51
 20
77.5518
 30
0.0
 40
0.5
 41
0.5
  0
VERTEX
  8
0
 10
250.565
 20
77.5486
 30
0.0
 40
0.5
 41
0.5
  0
VERTEX
  8
0
 10
250.621
 20
77.5396
 30
0.0
 40
0.5
 41
0.5
  0
VERTEX
  8
0
 10
250.781
 20
77.4661
 30
0.0
 40
0.5
 41
0.5
  0
VERTEX
  8
0
 10
250.912
 20
77.2935
 30
0.0
 40
0.5
 41
0.5
  0
VERTEX
  8
0
 10
250.937
 20
77.3311
 30
0.0
 40
0.5
 41
0.5
  0
VERTEX
  8
0
 10
250.966
 20
77.3687
 30
0.0
 40
0.5
 41
0.5
  0
VERTEX
  8
0
 10
251.121
 20
77.4946
 30
0.0
 40
0.5
 41
0.5
  0
VERTEX
  8
0
 10
251.352
 20
77.5544
 30
0.0
 40
0.5
 41
0.5
  0
VERTEX
  8
0
 10
251.381
 20
77.5544
 30
0.0
 40
0.5
 41
0.5
  0
VERTEX
  8
0
 10
251.406
 20
77.5518
 30
0.0
 40
0.5
 41
0.5
  0
VERTEX
  8
0
 10
251.732
 20
77.3596
 30
0.0
 40
0.5
 41
0.5
  0
VERTEX
  8
0
 10
251.809
 20
76.9365
 30
0.0
 40
0.5
 41
0.5
  0
VERTEX
  8
0
 10
251.809
 20
76.0906
 30
0.0
 40
0.5
 41
0.5
  0
VERTEX
  8
0
 10
251.548
 20
76.0906
 30
0.0
 40
0.5
 41
0.5
  0
VERTEX
  8
0
 10
251.548
 20
76.9397
 30
0.0
 40
0.5
 41
0.5
  0
VERTEX
  8
0
 10
251.489
 20
77.1946
 30
0.0
 40
0.5
 41
0.5
  0
VERTEX
  8
0
 10
251.29
 20
77.2935
 30
0.0
 40
0.5
 41
0.5
  0
VERTEX
  8
0
 10
251.064
 20
77.2112
 30
0.0
 40
0.5
 41
0.5
  0
VERTEX
  8
0
 10
250.98
 20
76.9155
 30
0.0
 40
0.5
 41
0.5
  0
VERTEX
  8
0
 10
250.98
 20
76.0906
 30
0.0
 40
0.5
 41
0.5
  0
VERTEX
  8
0
 10
250.698
 20
76.0906
 30
0.0
 40
0.5
 41
0.5
  0
VERTEX
  8
0
 10
250.698
 20
76.9875
 30
0.0
 40
0.5
 41
0.5
  0
VERTEX
  8
0
 10
250.634
 20
77.2036
 30
0.0
 40
0.5
 41
0.5
  0
VERTEX
  8
0
 10
250.494
 20
77.2876
 30
0.0
 40
0.5
 41
0.5
  0
VERTEX
  8
0
 10
250.466
 20
77.292
 30
0.0
 40
0.5
 41
0.5
  0
VERTEX
  8
0
 10
250.438
 20
77.2935
 30
0.0
 40
0.5
 41
0.5
  0
VERTEX
  8
0
 10
250.41
 20
77.2935
 30
0.0
 40
0.5
 41
0.5
  0
VERTEX
  8
0
 10
250.384
 20
77.2905
 30
0.0
 40
0.5
 41
0.5
  0
VERTEX
  8
0
 10
250.209
 20
77.2095
 30
0.0
 40
0.5
 41
0.5
  0
VERTEX
  8
0
 10
250.132
 20
76.9365
 30
0.0
 40
0.5
 41
0.5
  0
VERTEX
  8
0
 10
250.132
 20
76.0906
 30
0.0
 40
0.5
 41
0.5
  0
VERTEX
  8
0
 10
249.846
 20
76.0906
 30
0.0
 40
0.5
 41
0.5
  0
VERTEX
  8
0
 10
249.846
 20
77.4856
 30
0.0
 40
0.5
 41
0.5
  0
VERTEX
  8
0
 10
250.132
 20
77.4856
 30
0.0
 40
0.5
 41
0.5
  0
VERTEX
  8
0
 10
250.132
 20
77.3416
 30
0.0
 40
0.5
 41
0.5
  0
SEQEND
  8
0
  0
POLYLINE
8
0
 62
     0
 66
     1
 10
0
 20
0
 30
0.0
 70
     1
 40
0.5
 41
0.5
  0
VERTEX
  8
0
 10
252.512
 20
77.4856
 30
0.0
 40
0.5
 41
0.5
  0
VERTEX
  8
0
 10
252.512
 20
76.0906
 30
0.0
 40
0.5
 41
0.5
  0
VERTEX
  8
0
 10
252.229
 20
76.0906
 30
0.0
 40
0.5
 41
0.5
  0
VERTEX
  8
0
 10
252.229
 20
77.4856
 30
0.0
 40
0.5
 41
0.5
  0
VERTEX
  8
0
 10
252.512
 20
77.4856
 30
0.0
 40
0.5
 41
0.5
  0
SEQEND
  8
0
  0
POLYLINE
8
0
 62
     0
 66
     1
 10
0
 20
0
 30
0.0
 70
     1
 40
0.5
 41
0.5
  0
VERTEX
  8
0
 10
252.371
 20
78.3105
 30
0.0
 40
0.5
 41
0.5
  0
VERTEX
  8
0
 10
252.5
 20
78.2505
 30
0.0
 40
0.5
 41
0.5
  0
VERTEX
  8
0
 10
252.542
 20
78.1426
 30
0.0
 40
0.5
 41
0.5
  0
VERTEX
  8
0
 10
252.542
 20
78.1379
 30
0.0
 40
0.5
 41
0.5
  0
VERTEX
  8
0
 10
252.542
 20
78.1335
 30
0.0
 40
0.5
 41
0.5
  0
VERTEX
  8
0
 10
252.492
 20
78.0107
 30
0.0
 40
0.5
 41
0.5
  0
VERTEX
  8
0
 10
252.371
 20
77.9536
 30
0.0
 40
0.5
 41
0.5
  0
VERTEX
  8
0
 10
252.239
 20
78.0076
 30
0.0
 40
0.5
 41
0.5
  0
VERTEX
  8
0
 10
252.194
 20
78.1274
 30
0.0
 40
0.5
 41
0.5
  0
VERTEX
  8
0
 10
252.236
 20
78.2522
 30
0.0
 40
0.5
 41
0.5
  0
VERTEX
  8
0
 10
252.371
 20
78.3076
 30
0.0
 40
0.5
 41
0.5
  0
VERTEX
  8
0
 10
252.371
 20
78.3105
 30
0.0
 40
0.5
 41
0.5
  0
SEQEND
  8
0
  0
POLYLINE
8
0
 62
     0
 66
     1
 10
0
 20
0
 30
0.0
 70
     1
 40
0.5
 41
0.5
  0
VERTEX
  8
0
 10
253.195
 20
77.4856
 30
0.0
 40
0.5
 41
0.5
  0
VERTEX
  8
0
 10
253.195
 20
77.2966
 30
0.0
 40
0.5
 41
0.5
  0
VERTEX
  8
0
 10
253.279
 20
77.376
 30
0.0
 40
0.5
 41
0.5
  0
VERTEX
  8
0
 10
253.351
 20
77.4375
 30
0.0
 40
0.5
 41
0.5
  0
VERTEX
  8
0
 10
253.469
 20
77.4961
 30
0.0
 40
0.5
 41
0.5
  0
VERTEX
  8
0
 10
253.642
 20
77.5276
 30
0.0
 40
0.5
 41
0.5
  0
VERTEX
  8
0
 10
253.708
 20
77.5247
 30
0.0
 40
0.5
 41
0.5
  0
VERTEX
  8
0
 10
253.777
 20
77.5125
 30
0.0
 40
0.5
 41
0.5
  0
VERTEX
  8
0
 10
254.025
 20
77.3687
 30
0.0
 40
0.5
 41
0.5
  0
VERTEX
  8
0
 10
254.139
 20
77.0325
 30
0.0
 40
0.5
 41
0.5
  0
VERTEX
  8
0
 10
254.139
 20
76.0906
 30
0.0
 40
0.5
 41
0.5
  0
VERTEX
  8
0
 10
253.854
 20
76.0906
 30
0.0
 40
0.5
 41
0.5
  0
VERTEX
  8
0
 10
253.854
 20
77.0356
 30
0.0
 40
0.5
 41
0.5
  0
VERTEX
  8
0
 10
253.777
 20
77.2065
 30
0.0
 40
0.5
 41
0.5
  0
VERTEX
  8
0
 10
253.603
 20
77.2876
 30
0.0
 40
0.5
 41
0.5
  0
VERTEX
  8
0
 10
253.575
 20
77.292
 30
0.0
 40
0.5
 41
0.5
  0
VERTEX
  8
0
 10
253.549
 20
77.2935
 30
0.0
 40
0.5
 41
0.5
  0
VERTEX
  8
0
 10
253.544
 20
77.2935
 30
0.0
 40
0.5
 41
0.5
  0
VERTEX
  8
0
 10
253.54
 20
77.2935
 30
0.0
 40
0.5
 41
0.5
  0
VERTEX
  8
0
 10
253.318
 20
77.1946
 30
0.0
 40
0.5
 41
0.5
  0
VERTEX
  8
0
 10
253.216
 20
76.8916
 30
0.0
 40
0.5
 41
0.5
  0
VERTEX
  8
0
 10
253.216
 20
76.0906
 30
0.0
 40
0.5
 41
0.5
  0
VERTEX
  8
0
 10
252.934
 20
76.0906
 30
0.0
 40
0.5
 41
0.5
  0
VERTEX
  8
0
 10
252.934
 20
77.4856
 30
0.0
 40
0.5
 41
0.5
  0
VERTEX
  8
0
 10
253.195
 20
77.4856
 30
0.0
 40
0.5
 41
0.5
  0
SEQEND
  8
0
  0
POLYLINE
8
0
 62
     0
 66
     1
 10
0
 20
0
 30
0.0
 70
     1
 40
0.5
 41
0.5
  0
VERTEX
  8
0
 10
263.852
 20
77.6025
 30
0.0
 40
0.5
 41
0.5
  0
VERTEX
  8
0
 10
264.137
 20
77.6025
 30
0.0
 40
0.5
 41
0.5
  0
VERTEX
  8
0
 10
264.137
 20
76.9875
 30
0.0
 40
0.5
 41
0.5
  0
VERTEX
  8
0
 10
264.773
 20
76.9875
 30
0.0
 40
0.5
 41
0.5
  0
VERTEX
  8
0
 10
264.773
 20
76.7295
 30
0.0
 40
0.5
 41
0.5
  0
VERTEX
  8
0
 10
264.137
 20
76.7295
 30
0.0
 40
0.5
 41
0.5
  0
VERTEX
  8
0
 10
264.137
 20
76.0906
 30
0.0
 40
0.5
 41
0.5
  0
VERTEX
  8
0
 10
263.852
 20
76.0906
 30
0.0
 40
0.5
 41
0.5
  0
VERTEX
  8
0
 10
263.852
 20
76.7295
 30
0.0
 40
0.5
 41
0.5
  0
VERTEX
  8
0
 10
263.237
 20
76.7295
 30
0.0
 40
0.5
 41
0.5
  0
VERTEX
  8
0
 10
263.237
 20
76.9875
 30
0.0
 40
0.5
 41
0.5
  0
VERTEX
  8
0
 10
263.852
 20
76.9875
 30
0.0
 40
0.5
 41
0.5
  0
VERTEX
  8
0
 10
263.852
 20
77.6025
 30
0.0
 40
0.5
 41
0.5
  0
SEQEND
  8
0
  0
POLYLINE
8
0
 62
     0
 66
     1
 10
0
 20
0
 30
0.0
 70
     1
 40
0.5
 41
0.5
  0
VERTEX
  8
0
 10
265.197
 20
78.0977
 30
0.0
 40
0.5
 41
0.5
  0
VERTEX
  8
0
 10
265.362
 20
78.3826
 30
0.0
 40
0.5
 41
0.5
  0
VERTEX
  8
0
 10
265.86
 20
78.3826
 30
0.0
 40
0.5
 41
0.5
  0
VERTEX
  8
0
 10
265.86
 20
76.0906
 30
0.0
 40
0.5
 41
0.5
  0
VERTEX
  8
0
 10
265.575
 20
76.0906
 30
0.0
 40
0.5
 41
0.5
  0
VERTEX
  8
0
 10
265.575
 20
78.0977
 30
0.0
 40
0.5
 41
0.5
  0
VERTEX
  8
0
 10
265.197
 20
78.0977
 30
0.0
 40
0.5
 41
0.5
  0
SEQEND
  8
0
  0
POLYLINE
8
0
 62
     0
 66
     1
 10
0
 20
0
 30
0.0
 70
     1
 40
0.5
 41
0.5
  0
VERTEX
  8
0
 10
267.724
 20
77.3416
 30
0.0
 40
0.5
 41
0.5
  0
VERTEX
  8
0
 10
267.853
 20
77.5439
 30
0.0
 40
0.5
 41
0.5
  0
VERTEX
  8
0
 10
267.892
 20
77.7256
 30
0.0
 40
0.5
 41
0.5
  0
VERTEX
  8
0
 10
267.771
 20
78.0015
 30
0.0
 40
0.5
 41
0.5
  0
VERTEX
  8
0
 10
267.496
 20
78.1187
 30
0.0
 40
0.5
 41
0.5
  0
VERTEX
  8
0
 10
267.479
 20
78.1187
 30
0.0
 40
0.5
 41
0.5
  0
VERTEX
  8
0
 10
267.463
 20
78.1187
 30
0.0
 40
0.5
 41
0.5
  0
VERTEX
  8
0
 10
267.162
 20
78.0105
 30
0.0
 40
0.5
 41
0.5
  0
VERTEX
  8
0
 10
267.034
 20
77.7734
 30
0.0
 40
0.5
 41
0.5
  0
VERTEX
  8
0
 10
267.034
 20
77.7615
 30
0.0
 40
0.5
 41
0.5
  0
VERTEX
  8
0
 10
267.034
 20
77.7495
 30
0.0
 40
0.5
 41
0.5
  0
VERTEX
  8
0
 10
267.034
 20
77.7419
 30
0.0
 40
0.5
 41
0.5
  0
VERTEX
  8
0
 10
267.037
 20
77.7346
 30
0.0
 40
0.5
 41
0.5
  0
VERTEX
  8
0
 10
267.037
 20
77.7256
 30
0.0
 40
0.5
 41
0.5
  0
VERTEX
  8
0
 10
267.037
 20
77.7166
 30
0.0
 40
0.5
 41
0.5
  0
VERTEX
  8
0
 10
266.731
 20
77.7195
 30
0.0
 40
0.5
 41
0.5
  0
VERTEX
  8
0
 10
266.935
 20
78.1816
 30
0.0
 40
0.5
 41
0.5
  0
VERTEX
  8
0
 10
267.439
 20
78.3796
 30
0.0
 40
0.5
 41
0.5
  0
VERTEX
  8
0
 10
267.457
 20
78.3796
 30
0.0
 40
0.5
 41
0.5
  0
VERTEX
  8
0
 10
267.475
 20
78.3796
 30
0.0
 40
0.5
 41
0.5
  0
VERTEX
  8
0
 10
268.006
 20
78.1921
 30
0.0
 40
0.5
 41
0.5
  0
VERTEX
  8
0
 10
268.207
 20
77.7375
 30
0.0
 40
0.5
 41
0.5
  0
VERTEX
  8
0
 10
268.192
 20
77.5981
 30
0.0
 40
0.5
 41
0.5
  0
VERTEX
  8
0
 10
268.144
 20
77.4585
 30
0.0
 40
0.5
 41
0.5
  0
VERTEX
  8
0
 10
268.086
 20
77.3506
 30
0.0
 40
0.5
 41
0.5
  0
VERTEX
  8
0
 10
268.006
 20
77.2456
 30
0.0
 40
0.5
 41
0.5
  0
VERTEX
  8
0
 10
267.25
 20
76.3516
 30
0.0
 40
0.5
 41
0.5
  0
VERTEX
  8
0
 10
268.171
 20
76.3516
 30
0.0
 40
0.5
 41
0.5
  0
VERTEX
  8
0
 10
268.171
 20
76.0906
 30
0.0
 40
0.5
 41
0.5
  0
VERTEX
  8
0
 10
266.707
 20
76.0906
 30
0.0
 40
0.5
 41
0.5
  0
VERTEX
  8
0
 10
267.724
 20
77.3416
 30
0.0
 40
0.5
 41
0.5
  0
SEQEND
  8
0
  0
POLYLINE
8
0
 62
     0
 66
     1
 10
0
 20
0
 30
0.0
 70
     1
 40
0.5
 41
0.5
  0
VERTEX
  8
0
 10
269.777
 20
78.7126
 30
0.0
 40
0.5
 41
0.5
  0
VERTEX
  8
0
 10
269.777
 20
76.0906
 30
0.0
 40
0.5
 41
0.5
  0
VERTEX
  8
0
 10
269.516
 20
76.0906
 30
0.0
 40
0.5
 41
0.5
  0
VERTEX
  8
0
 10
269.516
 20
76.3276
 30
0.0
 40
0.5
 41
0.5
  0
VERTEX
  8
0
 10
269.417
 20
76.197
 30
0.0
 40
0.5
 41
0.5
  0
VERTEX
  8
0
 10
269.309
 20
76.1116
 30
0.0
 40
0.5
 41
0.5
  0
VERTEX
  8
0
 10
269.165
 20
76.0576
 30
0.0
 40
0.5
 41
0.5
  0
VERTEX
  8
0
 10
269.045
 20
76.0425
 30
0.0
 40
0.5
 41
0.5
  0
VERTEX
  8
0
 10
269.027
 20
76.0425
 30
0.0
 40
0.5
 41
0.5
  0
VERTEX
  8
0
 10
269.009
 20
76.0425
 30
0.0
 40
0.5
 41
0.5
  0
VERTEX
  8
0
 10
268.595
 20
76.1851
 30
0.0
 40
0.5
 41
0.5
  0
VERTEX
  8
0
 10
268.382
 20
76.5076
 30
0.0
 40
0.5
 41
0.5
  0
VERTEX
  8
0
 10
268.348
 20
76.644
 30
0.0
 40
0.5
 41
0.5
  0
VERTEX
  8
0
 10
268.337
 20
76.7715
 30
0.0
 40
0.5
 41
0.5
  0
VERTEX
  8
0
 10
268.531
 20
77.3401
 30
0.0
 40
0.5
 41
0.5
  0
VERTEX
  8
0
 10
268.958
 20
77.5486
 30
0.0
 40
0.5
 41
0.5
  0
VERTEX
  8
0
 10
268.99
 20
77.5515
 30
0.0
 40
0.5
 41
0.5
  0
VERTEX
  8
0
 10
269.021
 20
77.5515
 30
0.0
 40
0.5
 41
0.5
  0
VERTEX
  8
0
 10
269.096
 20
77.5471
 30
0.0
 40
0.5
 41
0.5
  0
VERTEX
  8
0
 10
269.174
 20
77.5334
 30
0.0
 40
0.5
 41
0.5
  0
VERTEX
  8
0
 10
269.356
 20
77.4526
 30
0.0
 40
0.5
 41
0.5
  0
VERTEX
  8
0
 10
269.495
 20
77.2935
 30
0.0
 40
0.5
 41
0.5
  0
VERTEX
  8
0
 10
269.495
 20
78.7126
 30
0.0
 40
0.5
 41
0.5
  0
VERTEX
  8
0
 10
269.777
 20
78.7126
 30
0.0
 40
0.5
 41
0.5
  0
SEQEND
  8
0
  0
POLYLINE
8
0
 62
     0
 66
     1
 10
0
 20
0
 30
0.0
 70
     1
 40
0.5
 41
0.5
  0
VERTEX
  8
0
 10
269.495
 20
76.8225
 30
0.0
 40
0.5
 41
0.5
  0
VERTEX
  8
0
 10
269.389
 20
77.1826
 30
0.0
 40
0.5
 41
0.5
  0
VERTEX
  8
0
 10
269.069
 20
77.3145
 30
0.0
 40
0.5
 41
0.5
  0
VERTEX
  8
0
 10
268.765
 20
77.187
 30
0.0
 40
0.5
 41
0.5
  0
VERTEX
  8
0
 10
268.631
 20
76.9065
 30
0.0
 40
0.5
 41
0.5
  0
VERTEX
  8
0
 10
268.622
 20
76.8391
 30
0.0
 40
0.5
 41
0.5
  0
VERTEX
  8
0
 10
268.619
 20
76.7715
 30
0.0
 40
0.5
 41
0.5
  0
VERTEX
  8
0
 10
268.628
 20
76.677
 30
0.0
 40
0.5
 41
0.5
  0
VERTEX
  8
0
 10
268.658
 20
76.5706
 30
0.0
 40
0.5
 41
0.5
  0
VERTEX
  8
0
 10
268.795
 20
76.3679
 30
0.0
 40
0.5
 41
0.5
  0
VERTEX
  8
0
 10
269.069
 20
76.2766
 30
0.0
 40
0.5
 41
0.5
  0
VERTEX
  8
0
 10
269.365
 20
76.4041
 30
0.0
 40
0.5
 41
0.5
  0
VERTEX
  8
0
 10
269.483
 20
76.6846
 30
0.0
 40
0.5
 41
0.5
  0
VERTEX
  8
0
 10
269.492
 20
76.752
 30
0.0
 40
0.5
 41
0.5
  0
VERTEX
  8
0
 10
269.495
 20
76.8196
 30
0.0
 40
0.5
 41
0.5
  0
VERTEX
  8
0
 10
269.495
 20
76.8225
 30
0.0
 40
0.5
 41
0.5
  0
SEQEND
  8
0
  0
POLYLINE
8
0
 62
     0
 66
     1
 10
0
 20
0
 30
0.0
 70
     1
 40
0.5
 41
0.5
  0
VERTEX
  8
0
 10
270.416
 20
78.3345
 30
0.0
 40
0.5
 41
0.5
  0
VERTEX
  8
0
 10
270.528
 20
78.3315
 30
0.0
 40
0.5
 41
0.5
  0
VERTEX
  8
0
 10
270.646
 20
78.3254
 30
0.0
 40
0.5
 41
0.5
  0
VERTEX
  8
0
 10
271.061
 20
78.2175
 30
0.0
 40
0.5
 41
0.5
  0
VERTEX
  8
0
 10
271.264
 20
77.8125
 30
0.0
 40
0.5
 41
0.5
  0
VERTEX
  8
0
 10
271.194
 20
77.4929
 30
0.0
 40
0.5
 41
0.5
  0
VERTEX
  8
0
 10
270.982
 20
77.3145
 30
0.0
 40
0.5
 41
0.5
  0
VERTEX
  8
0
 10
271.015
 20
77.3115
 30
0.0
 40
0.5
 41
0.5
  0
VERTEX
  8
0
 10
271.049
 20
77.3025
 30
0.0
 40
0.5
 41
0.5
  0
VERTEX
  8
0
 10
271.344
 20
77.1016
 30
0.0
 40
0.5
 41
0.5
  0
VERTEX
  8
0
 10
271.478
 20
76.7026
 30
0.0
 40
0.5
 41
0.5
  0
VERTEX
  8
0
 10
271.242
 20
76.2466
 30
0.0
 40
0.5
 41
0.5
  0
VERTEX
  8
0
 10
270.649
 20
76.0906
 30
0.0
 40
0.5
 41
0.5
  0
VERTEX
  8
0
 10
270.131
 20
76.0906
 30
0.0
 40
0.5
 41
0.5
  0
VERTEX
  8
0
 10
270.131
 20
78.3345
 30
0.0
 40
0.5
 41
0.5
  0
VERTEX
  8
0
 10
270.416
 20
78.3345
 30
0.0
 40
0.5
 41
0.5
  0
SEQEND
  8
0
  0
POLYLINE
8
0
 62
     0
 66
     1
 10
0
 20
0
 30
0.0
 70
     1
 40
0.5
 41
0.5
  0
VERTEX
  8
0
 10
270.437
 20
77.1526
 30
0.0
 40
0.5
 41
0.5
  0
VERTEX
  8
0
 10
270.437
 20
76.3276
 30
0.0
 40
0.5
 41
0.5
  0
VERTEX
  8
0
 10
270.523
 20
76.3171
 30
0.0
 40
0.5
 41
0.5
  0
VERTEX
  8
0
 10
270.604
 20
76.3125
 30
0.0
 40
0.5
 41
0.5
  0
VERTEX
  8
0
 10
270.938
 20
76.377
 30
0.0
 40
0.5
 41
0.5
  0
VERTEX
  8
0
 10
271.115
 20
76.5195
 30
0.0
 40
0.5
 41
0.5
  0
VERTEX
  8
0
 10
271.158
 20
76.6064
 30
0.0
 40
0.5
 41
0.5
  0
VERTEX
  8
0
 10
271.171
 20
76.6785
 30
0.0
 40
0.5
 41
0.5
  0
VERTEX
  8
0
 10
271.171
 20
76.6965
 30
0.0
 40
0.5
 41
0.5
  0
VERTEX
  8
0
 10
271.171
 20
76.7175
 30
0.0
 40
0.5
 41
0.5
  0
VERTEX
  8
0
 10
270.993
 20
77.0476
 30
0.0
 40
0.5
 41
0.5
  0
VERTEX
  8
0
 10
270.437
 20
77.1497
 30
0.0
 40
0.5
 41
0.5
  0
VERTEX
  8
0
 10
270.437
 20
77.1526
 30
0.0
 40
0.5
 41
0.5
  0
SEQEND
  8
0
  0
POLYLINE
8
0
 62
     0
 66
     1
 10
0
 20
0
 30
0.0
 70
     1
 40
0.5
 41
0.5
  0
VERTEX
  8
0
 10
270.437
 20
78.1216
 30
0.0
 40
0.5
 41
0.5
  0
VERTEX
  8
0
 10
270.437
 20
77.3655
 30
0.0
 40
0.5
 41
0.5
  0
VERTEX
  8
0
 10
270.486
 20
77.3596
 30
0.0
 40
0.5
 41
0.5
  0
VERTEX
  8
0
 10
270.535
 20
77.3596
 30
0.0
 40
0.5
 41
0.5
  0
VERTEX
  8
0
 10
270.868
 20
77.4421
 30
0.0
 40
0.5
 41
0.5
  0
VERTEX
  8
0
 10
270.982
 20
77.7166
 30
0.0
 40
0.5
 41
0.5
  0
VERTEX
  8
0
 10
270.982
 20
77.7241
 30
0.0
 40
0.5
 41
0.5
  0
VERTEX
  8
0
 10
270.982
 20
77.7314
 30
0.0
 40
0.5
 41
0.5
  0
VERTEX
  8
0
 10
270.981
 20
77.7991
 30
0.0
 40
0.5
 41
0.5
  0
VERTEX
  8
0
 10
270.97
 20
77.8755
 30
0.0
 40
0.5
 41
0.5
  0
VERTEX
  8
0
 10
270.852
 20
78.0435
 30
0.0
 40
0.5
 41
0.5
  0
VERTEX
  8
0
 10
270.506
 20
78.1187
 30
0.0
 40
0.5
 41
0.5
  0
VERTEX
  8
0
 10
270.472
 20
78.1187
 30
0.0
 40
0.5
 41
0.5
  0
VERTEX
  8
0
 10
270.437
 20
78.1187
 30
0.0
 40
0.5
 41
0.5
  0
VERTEX
  8
0
 10
270.437
 20
78.1216
 30
0.0
 40
0.5
 41
0.5
  0
SEQEND
  8
0
  0
POLYLINE
8
0
 62
     0
 66
     1
 10
0
 20
0
 30
0.0
 70
     1
 40
0.5
 41
0.5
  0
VERTEX
  8
0
 10
256.666
 20
97.3967
 30
0.0
 40
0.5
 41
0.5
  0
VERTEX
  8
0
 10
256.666
 20
96.9248
 30
0.0
 40
0.5
 41
0.5
  0
VERTEX
  8
0
 10
256.432
 20
96.8408
 30
0.0
 40
0.5
 41
0.5
  0
VERTEX
  8
0
 10
256.178
 20
96.8127
 30
0.0
 40
0.5
 41
0.5
  0
VERTEX
  8
0
 10
256.146
 20
96.8127
 30
0.0
 40
0.5
 41
0.5
  0
VERTEX
  8
0
 10
256.114
 20
96.8127
 30
0.0
 40
0.5
 41
0.5
  0
VERTEX
  8
0
 10
255.454
 20
97.0728
 30
0.0
 40
0.5
 41
0.5
  0
VERTEX
  8
0
 10
255.154
 20
97.8008
 30
0.0
 40
0.5
 41
0.5
  0
VERTEX
  8
0
 10
255.46
 20
98.5808
 30
0.0
 40
0.5
 41
0.5
  0
VERTEX
  8
0
 10
256.154
 20
98.8367
 30
0.0
 40
0.5
 41
0.5
  0
VERTEX
  8
0
 10
256.43
 20
98.8088
 30
0.0
 40
0.5
 41
0.5
  0
VERTEX
  8
0
 10
256.694
 20
98.7168
 30
0.0
 40
0.5
 41
0.5
  0
VERTEX
  8
0
 10
256.694
 20
98.2488
 30
0.0
 40
0.5
 41
0.5
  0
VERTEX
  8
0
 10
256.592
 20
98.3508
 30
0.0
 40
0.5
 41
0.5
  0
VERTEX
  8
0
 10
256.486
 20
98.4209
 30
0.0
 40
0.5
 41
0.5
  0
VERTEX
  8
0
 10
256.276
 20
98.4868
 30
0.0
 40
0.5
 41
0.5
  0
VERTEX
  8
0
 10
256.13
 20
98.4968
 30
0.0
 40
0.5
 41
0.5
  0
VERTEX
  8
0
 10
255.672
 20
98.2708
 30
0.0
 40
0.5
 41
0.5
  0
VERTEX
  8
0
 10
255.514
 20
97.8328
 30
0.0
 40
0.5
 41
0.5
  0
VERTEX
  8
0
 10
255.514
 20
97.8267
 30
0.0
 40
0.5
 41
0.5
  0
VERTEX
  8
0
 10
255.514
 20
97.8208
 30
0.0
 40
0.5
 41
0.5
  0
VERTEX
  8
0
 10
255.664
 20
97.3748
 30
0.0
 40
0.5
 41
0.5
  0
VERTEX
  8
0
 10
256.102
 20
97.1729
 30
0.0
 40
0.5
 41
0.5
  0
VERTEX
  8
0
 10
256.116
 20
97.1729
 30
0.0
 40
0.5
 41
0.5
  0
VERTEX
  8
0
 10
256.13
 20
97.1729
 30
0.0
 40
0.5
 41
0.5
  0
VERTEX
  8
0
 10
256.3
 20
97.1907
 30
0.0
 40
0.5
 41
0.5
  0
VERTEX
  8
0
 10
256.578
 20
97.3208
 30
0.0
 40
0.5
 41
0.5
  0
VERTEX
  8
0
 10
256.624
 20
97.3547
 30
0.0
 40
0.5
 41
0.5
  0
VERTEX
  8
0
 10
256.666
 20
97.3928
 30
0.0
 40
0.5
 41
0.5
  0
VERTEX
  8
0
 10
256.666
 20
97.3967
 30
0.0
 40
0.5
 41
0.5
  0
SEQEND
  8
0
  0
POLYLINE
8
0
 62
     0
 66
     1
 10
0
 20
0
 30
0.0
 70
     1
 40
0.5
 41
0.5
  0
VERTEX
  8
0
 10
257.391
 20
100.357
 30
0.0
 40
0.5
 41
0.5
  0
VERTEX
  8
0
 10
257.391
 20
98.5288
 30
0.0
 40
0.5
 41
0.5
  0
VERTEX
  8
0
 10
257.637
 20
98.7549
 30
0.0
 40
0.5
 41
0.5
  0
VERTEX
  8
0
 10
257.955
 20
98.8408
 30
0.0
 40
0.5
 41
0.5
  0
VERTEX
  8
0
 10
258.429
 20
98.6926
 30
0.0
 40
0.5
 41
0.5
  0
VERTEX
  8
0
 10
258.619
 20
98.1169
 30
0.0
 40
0.5
 41
0.5
  0
VERTEX
  8
0
 10
258.619
 20
96.8928
 30
0.0
 40
0.5
 41
0.5
  0
VERTEX
  8
0
 10
258.271
 20
96.8928
 30
0.0
 40
0.5
 41
0.5
  0
VERTEX
  8
0
 10
258.271
 20
98.1208
 30
0.0
 40
0.5
 41
0.5
  0
VERTEX
  8
0
 10
258.161
 20
98.4128
 30
0.0
 40
0.5
 41
0.5
  0
VERTEX
  8
0
 10
257.863
 20
98.4968
 30
0.0
 40
0.5
 41
0.5
  0
VERTEX
  8
0
 10
257.497
 20
98.3586
 30
0.0
 40
0.5
 41
0.5
  0
VERTEX
  8
0
 10
257.391
 20
97.9607
 30
0.0
 40
0.5
 41
0.5
  0
VERTEX
  8
0
 10
257.391
 20
96.8928
 30
0.0
 40
0.5
 41
0.5
  0
VERTEX
  8
0
 10
257.011
 20
96.8928
 30
0.0
 40
0.5
 41
0.5
  0
VERTEX
  8
0
 10
257.011
 20
100.357
 30
0.0
 40
0.5
 41
0.5
  0
VERTEX
  8
0
 10
257.391
 20
100.357
 30
0.0
 40
0.5
 41
0.5
  0
SEQEND
  8
0
  0
POLYLINE
8
0
 62
     0
 66
     1
 10
0
 20
0
 30
0.0
 70
     1
 40
0.5
 41
0.5
  0
VERTEX
  8
0
 10
260.006
 20
98.3408
 30
0.0
 40
0.5
 41
0.5
  0
VERTEX
  8
0
 10
260.006
 20
98.0247
 30
0.0
 40
0.5
 41
0.5
  0
VERTEX
  8
0
 10
259.122
 20
98.0247
 30
0.0
 40
0.5
 41
0.5
  0
VERTEX
  8
0
 10
259.122
 20
98.3408
 30
0.0
 40
0.5
 41
0.5
  0
VERTEX
  8
0
 10
260.006
 20
98.3408
 30
0.0
 40
0.5
 41
0.5
  0
SEQEND
  8
0
  0
POLYLINE
8
0
 62
     0
 66
     1
 10
0
 20
0
 30
0.0
 70
     1
 40
0.5
 41
0.5
  0
VERTEX
  8
0
 10
261.332
 20
98.6567
 30
0.0
 40
0.5
 41
0.5
  0
VERTEX
  8
0
 10
261.756
 20
98.7668
 30
0.0
 40
0.5
 41
0.5
  0
VERTEX
  8
0
 10
261.896
 20
99.0928
 30
0.0
 40
0.5
 41
0.5
  0
VERTEX
  8
0
 10
261.9
 20
99.1228
 30
0.0
 40
0.5
 41
0.5
  0
VERTEX
  8
0
 10
261.9
 20
99.1528
 30
0.0
 40
0.5
 41
0.5
  0
VERTEX
  8
0
 10
261.748
 20
99.5188
 30
0.0
 40
0.5
 41
0.5
  0
VERTEX
  8
0
 10
261.408
 20
99.6448
 30
0.0
 40
0.5
 41
0.5
  0
VERTEX
  8
0
 10
261.4
 20
99.6448
 30
0.0
 40
0.5
 41
0.5
  0
VERTEX
  8
0
 10
261.392
 20
99.6448
 30
0.0
 40
0.5
 41
0.5
  0
VERTEX
  8
0
 10
261.092
 20
99.5366
 30
0.0
 40
0.5
 41
0.5
  0
VERTEX
  8
0
 10
260.92
 20
99.2207
 30
0.0
 40
0.5
 41
0.5
  0
VERTEX
  8
0
 10
260.544
 20
99.2249
 30
0.0
 40
0.5
 41
0.5
  0
VERTEX
  8
0
 10
260.776
 20
99.7288
 30
0.0
 40
0.5
 41
0.5
  0
VERTEX
  8
0
 10
261.432
 20
99.9487
 30
0.0
 40
0.5
 41
0.5
  0
VERTEX
  8
0
 10
261.454
 20
99.9487
 30
0.0
 40
0.5
 41
0.5
  0
VERTEX
  8
0
 10
261.476
 20
99.9487
 30
0.0
 40
0.5
 41
0.5
  0
VERTEX
  8
0
 10
261.498
 20
99.9448
 30
0.0
 40
0.5
 41
0.5
  0
VERTEX
  8
0
 10
261.52
 20
99.9448
 30
0.0
 40
0.5
 41
0.5
  0
VERTEX
  8
0
 10
261.526
 20
99.9448
 30
0.0
 40
0.5
 41
0.5
  0
VERTEX
  8
0
 10
261.532
 20
99.9448
 30
0.0
 40
0.5
 41
0.5
  0
VERTEX
  8
0
 10
262.044
 20
99.7126
 30
0.0
 40
0.5
 41
0.5
  0
VERTEX
  8
0
 10
262.276
 20
99.1567
 30
0.0
 40
0.5
 41
0.5
  0
VERTEX
  8
0
 10
262.216
 20
98.7966
 30
0.0
 40
0.5
 41
0.5
  0
VERTEX
  8
0
 10
262.008
 20
98.5447
 30
0.0
 40
0.5
 41
0.5
  0
VERTEX
  8
0
 10
261.954
 20
98.5049
 30
0.0
 40
0.5
 41
0.5
  0
VERTEX
  8
0
 10
261.896
 20
98.4648
 30
0.0
 40
0.5
 41
0.5
  0
VERTEX
  8
0
 10
262.236
 20
98.1667
 30
0.0
 40
0.5
 41
0.5
  0
VERTEX
  8
0
 10
262.344
 20
97.7646
 30
0.0
 40
0.5
 41
0.5
  0
VERTEX
  8
0
 10
262.344
 20
97.7388
 30
0.0
 40
0.5
 41
0.5
  0
VERTEX
  8
0
 10
262.344
 20
97.7087
 30
0.0
 40
0.5
 41
0.5
  0
VERTEX
  8
0
 10
262.07
 20
97.1028
 30
0.0
 40
0.5
 41
0.5
  0
VERTEX
  8
0
 10
261.396
 20
96.8289
 30
0.0
 40
0.5
 41
0.5
  0
VERTEX
  8
0
 10
261.378
 20
96.8289
 30
0.0
 40
0.5
 41
0.5
  0
VERTEX
  8
0
 10
261.36
 20
96.8289
 30
0.0
 40
0.5
 41
0.5
  0
VERTEX
  8
0
 10
260.702
 20
97.0647
 30
0.0
 40
0.5
 41
0.5
  0
VERTEX
  8
0
 10
260.448
 20
97.5928
 30
0.0
 40
0.5
 41
0.5
  0
VERTEX
  8
0
 10
260.448
 20
97.6208
 30
0.0
 40
0.5
 41
0.5
  0
VERTEX
  8
0
 10
260.448
 20
97.6448
 30
0.0
 40
0.5
 41
0.5
  0
VERTEX
  8
0
 10
260.828
 20
97.6487
 30
0.0
 40
0.5
 41
0.5
  0
VERTEX
  8
0
 10
261.004
 20
97.2747
 30
0.0
 40
0.5
 41
0.5
  0
VERTEX
  8
0
 10
261.392
 20
97.1406
 30
0.0
 40
0.5
 41
0.5
  0
VERTEX
  8
0
 10
261.802
 20
97.3267
 30
0.0
 40
0.5
 41
0.5
  0
VERTEX
  8
0
 10
261.964
 20
97.7368
 30
0.0
 40
0.5
 41
0.5
  0
VERTEX
  8
0
 10
261.964
 20
97.7527
 30
0.0
 40
0.5
 41
0.5
  0
VERTEX
  8
0
 10
261.964
 20
97.7688
 30
0.0
 40
0.5
 41
0.5
  0
VERTEX
  8
0
 10
261.828
 20
98.1648
 30
0.0
 40
0.5
 41
0.5
  0
VERTEX
  8
0
 10
261.396
 20
98.3408
 30
0.0
 40
0.5
 41
0.5
  0
VERTEX
  8
0
 10
261.38
 20
98.3408
 30
0.0
 40
0.5
 41
0.5
  0
VERTEX
  8
0
 10
261.364
 20
98.3408
 30
0.0
 40
0.5
 41
0.5
  0
VERTEX
  8
0
 10
261.348
 20
98.3367
 30
0.0
 40
0.5
 41
0.5
  0
VERTEX
  8
0
 10
261.332
 20
98.3367
 30
0.0
 40
0.5
 41
0.5
  0
VERTEX
  8
0
 10
261.332
 20
98.6567
 30
0.0
 40
0.5
 41
0.5
  0
SEQEND
  8
0
  0
POLYLINE
8
0
 62
     0
 66
     1
 10
0
 20
0
 30
0.0
 70
     1
 40
0.5
 41
0.5
  0
VERTEX
  8
0
 10
256.331
 20
91.6387
 30
0.0
 40
0.5
 41
0.5
  0
VERTEX
  8
0
 10
256.328
 20
91.6582
 30
0.0
 40
0.5
 41
0.5
  0
VERTEX
  8
0
 10
256.328
 20
91.6838
 30
0.0
 40
0.5
 41
0.5
  0
VERTEX
  8
0
 10
256.351
 20
91.9116
 30
0.0
 40
0.5
 41
0.5
  0
VERTEX
  8
0
 10
256.43
 20
92.2117
 30
0.0
 40
0.5
 41
0.5
  0
VERTEX
  8
0
 10
256.673
 20
92.6287
 30
0.0
 40
0.5
 41
0.5
  0
VERTEX
  8
0
 10
257.108
 20
92.8176
 30
0.0
 40
0.5
 41
0.5
  0
VERTEX
  8
0
 10
257.675
 20
92.5012
 30
0.0
 40
0.5
 41
0.5
  0
VERTEX
  8
0
 10
257.906
 20
91.8066
 30
0.0
 40
0.5
 41
0.5
  0
VERTEX
  8
0
 10
257.911
 20
91.7451
 30
0.0
 40
0.5
 41
0.5
  0
VERTEX
  8
0
 10
257.912
 20
91.6838
 30
0.0
 40
0.5
 41
0.5
  0
VERTEX
  8
0
 10
257.903
 20
91.4946
 30
0.0
 40
0.5
 41
0.5
  0
VERTEX
  8
0
 10
257.876
 20
91.2937
 30
0.0
 40
0.5
 41
0.5
  0
VERTEX
  8
0
 10
257.642
 20
90.7178
 30
0.0
 40
0.5
 41
0.5
  0
VERTEX
  8
0
 10
257.132
 20
90.4568
 30
0.0
 40
0.5
 41
0.5
  0
VERTEX
  8
0
 10
256.654
 20
90.6563
 30
0.0
 40
0.5
 41
0.5
  0
VERTEX
  8
0
 10
256.412
 20
91.0957
 30
0.0
 40
0.5
 41
0.5
  0
VERTEX
  8
0
 10
256.348
 20
91.4001
 30
0.0
 40
0.5
 41
0.5
  0
VERTEX
  8
0
 10
256.331
 20
91.6357
 30
0.0
 40
0.5
 41
0.5
  0
VERTEX
  8
0
 10
256.331
 20
91.6387
 30
0.0
 40
0.5
 41
0.5
  0
SEQEND
  8
0
  0
POLYLINE
8
0
 62
     0
 66
     1
 10
0
 20
0
 30
0.0
 70
     1
 40
0.5
 41
0.5
  0
VERTEX
  8
0
 10
257.63
 20
91.6628
 30
0.0
 40
0.5
 41
0.5
  0
VERTEX
  8
0
 10
257.513
 20
92.2568
 30
0.0
 40
0.5
 41
0.5
  0
VERTEX
  8
0
 10
257.258
 20
92.5479
 30
0.0
 40
0.5
 41
0.5
  0
VERTEX
  8
0
 10
257.206
 20
92.5703
 30
0.0
 40
0.5
 41
0.5
  0
VERTEX
  8
0
 10
257.156
 20
92.5808
 30
0.0
 40
0.5
 41
0.5
  0
VERTEX
  8
0
 10
257.146
 20
92.5823
 30
0.0
 40
0.5
 41
0.5
  0
VERTEX
  8
0
 10
257.135
 20
92.5837
 30
0.0
 40
0.5
 41
0.5
  0
VERTEX
  8
0
 10
257.125
 20
92.5837
 30
0.0
 40
0.5
 41
0.5
  0
VERTEX
  8
0
 10
257.114
 20
92.5837
 30
0.0
 40
0.5
 41
0.5
  0
VERTEX
  8
0
 10
256.816
 20
92.4128
 30
0.0
 40
0.5
 41
0.5
  0
VERTEX
  8
0
 10
256.661
 20
92.0378
 30
0.0
 40
0.5
 41
0.5
  0
VERTEX
  8
0
 10
256.624
 20
91.8203
 30
0.0
 40
0.5
 41
0.5
  0
VERTEX
  8
0
 10
256.613
 20
91.6357
 30
0.0
 40
0.5
 41
0.5
  0
VERTEX
  8
0
 10
256.625
 20
91.4558
 30
0.0
 40
0.5
 41
0.5
  0
VERTEX
  8
0
 10
256.664
 20
91.2427
 30
0.0
 40
0.5
 41
0.5
  0
VERTEX
  8
0
 10
256.819
 20
90.8796
 30
0.0
 40
0.5
 41
0.5
  0
VERTEX
  8
0
 10
257.108
 20
90.7148
 30
0.0
 40
0.5
 41
0.5
  0
VERTEX
  8
0
 10
257.503
 20
90.9922
 30
0.0
 40
0.5
 41
0.5
  0
VERTEX
  8
0
 10
257.63
 20
91.6597
 30
0.0
 40
0.5
 41
0.5
  0
VERTEX
  8
0
 10
257.63
 20
91.6628
 30
0.0
 40
0.5
 41
0.5
  0
SEQEND
  8
0
  0
POLYLINE
8
0
 62
     0
 66
     1
 10
0
 20
0
 30
0.0
 70
     1
 40
0.5
 41
0.5
  0
VERTEX
  8
0
 10
259.47
 20
93.1267
 30
0.0
 40
0.5
 41
0.5
  0
VERTEX
  8
0
 10
259.47
 20
90.5046
 30
0.0
 40
0.5
 41
0.5
  0
VERTEX
  8
0
 10
259.209
 20
90.5046
 30
0.0
 40
0.5
 41
0.5
  0
VERTEX
  8
0
 10
259.209
 20
90.7417
 30
0.0
 40
0.5
 41
0.5
  0
VERTEX
  8
0
 10
259.11
 20
90.6113
 30
0.0
 40
0.5
 41
0.5
  0
VERTEX
  8
0
 10
259.002
 20
90.5256
 30
0.0
 40
0.5
 41
0.5
  0
VERTEX
  8
0
 10
258.858
 20
90.4717
 30
0.0
 40
0.5
 41
0.5
  0
VERTEX
  8
0
 10
258.738
 20
90.4568
 30
0.0
 40
0.5
 41
0.5
  0
VERTEX
  8
0
 10
258.72
 20
90.4568
 30
0.0
 40
0.5
 41
0.5
  0
VERTEX
  8
0
 10
258.702
 20
90.4568
 30
0.0
 40
0.5
 41
0.5
  0
VERTEX
  8
0
 10
258.288
 20
90.5991
 30
0.0
 40
0.5
 41
0.5
  0
VERTEX
  8
0
 10
258.075
 20
90.9216
 30
0.0
 40
0.5
 41
0.5
  0
VERTEX
  8
0
 10
258.041
 20
91.0583
 30
0.0
 40
0.5
 41
0.5
  0
VERTEX
  8
0
 10
258.031
 20
91.1858
 30
0.0
 40
0.5
 41
0.5
  0
VERTEX
  8
0
 10
258.224
 20
91.7542
 30
0.0
 40
0.5
 41
0.5
  0
VERTEX
  8
0
 10
258.651
 20
91.9626
 30
0.0
 40
0.5
 41
0.5
  0
VERTEX
  8
0
 10
258.683
 20
91.9658
 30
0.0
 40
0.5
 41
0.5
  0
VERTEX
  8
0
 10
258.714
 20
91.9658
 30
0.0
 40
0.5
 41
0.5
  0
VERTEX
  8
0
 10
258.789
 20
91.9612
 30
0.0
 40
0.5
 41
0.5
  0
VERTEX
  8
0
 10
258.867
 20
91.9478
 30
0.0
 40
0.5
 41
0.5
  0
VERTEX
  8
0
 10
259.049
 20
91.8667
 30
0.0
 40
0.5
 41
0.5
  0
VERTEX
  8
0
 10
259.188
 20
91.7078
 30
0.0
 40
0.5
 41
0.5
  0
VERTEX
  8
0
 10
259.188
 20
93.1267
 30
0.0
 40
0.5
 41
0.5
  0
VERTEX
  8
0
 10
259.47
 20
93.1267
 30
0.0
 40
0.5
 41
0.5
  0
SEQEND
  8
0
  0
POLYLINE
8
0
 62
     0
 66
     1
 10
0
 20
0
 30
0.0
 70
     1
 40
0.5
 41
0.5
  0
VERTEX
  8
0
 10
259.188
 20
91.2368
 30
0.0
 40
0.5
 41
0.5
  0
VERTEX
  8
0
 10
259.082
 20
91.5967
 30
0.0
 40
0.5
 41
0.5
  0
VERTEX
  8
0
 10
258.762
 20
91.7288
 30
0.0
 40
0.5
 41
0.5
  0
VERTEX
  8
0
 10
258.458
 20
91.6013
 30
0.0
 40
0.5
 41
0.5
  0
VERTEX
  8
0
 10
258.324
 20
91.3208
 30
0.0
 40
0.5
 41
0.5
  0
VERTEX
  8
0
 10
258.315
 20
91.2532
 30
0.0
 40
0.5
 41
0.5
  0
VERTEX
  8
0
 10
258.313
 20
91.1858
 30
0.0
 40
0.5
 41
0.5
  0
VERTEX
  8
0
 10
258.321
 20
91.0913
 30
0.0
 40
0.5
 41
0.5
  0
VERTEX
  8
0
 10
258.351
 20
90.9846
 30
0.0
 40
0.5
 41
0.5
  0
VERTEX
  8
0
 10
258.488
 20
90.7822
 30
0.0
 40
0.5
 41
0.5
  0
VERTEX
  8
0
 10
258.762
 20
90.6907
 30
0.0
 40
0.5
 41
0.5
  0
VERTEX
  8
0
 10
259.058
 20
90.8184
 30
0.0
 40
0.5
 41
0.5
  0
VERTEX
  8
0
 10
259.177
 20
91.0986
 30
0.0
 40
0.5
 41
0.5
  0
VERTEX
  8
0
 10
259.185
 20
91.1663
 30
0.0
 40
0.5
 41
0.5
  0
VERTEX
  8
0
 10
259.188
 20
91.2336
 30
0.0
 40
0.5
 41
0.5
  0
VERTEX
  8
0
 10
259.188
 20
91.2368
 30
0.0
 40
0.5
 41
0.5
  0
SEQEND
  8
0
  0
POLYLINE
8
0
 62
     0
 66
     1
 10
0
 20
0
 30
0.0
 70
     1
 40
0.5
 41
0.5
  0
VERTEX
  8
0
 10
260.109
 20
92.7488
 30
0.0
 40
0.5
 41
0.5
  0
VERTEX
  8
0
 10
260.221
 20
92.7458
 30
0.0
 40
0.5
 41
0.5
  0
VERTEX
  8
0
 10
260.34
 20
92.7397
 30
0.0
 40
0.5
 41
0.5
  0
VERTEX
  8
0
 10
260.754
 20
92.6318
 30
0.0
 40
0.5
 41
0.5
  0
VERTEX
  8
0
 10
260.958
 20
92.2268
 30
0.0
 40
0.5
 41
0.5
  0
VERTEX
  8
0
 10
260.887
 20
91.9072
 30
0.0
 40
0.5
 41
0.5
  0
VERTEX
  8
0
 10
260.676
 20
91.7288
 30
0.0
 40
0.5
 41
0.5
  0
VERTEX
  8
0
 10
260.708
 20
91.7258
 30
0.0
 40
0.5
 41
0.5
  0
VERTEX
  8
0
 10
260.742
 20
91.7168
 30
0.0
 40
0.5
 41
0.5
  0
VERTEX
  8
0
 10
261.037
 20
91.5156
 30
0.0
 40
0.5
 41
0.5
  0
VERTEX
  8
0
 10
261.171
 20
91.1167
 30
0.0
 40
0.5
 41
0.5
  0
VERTEX
  8
0
 10
260.935
 20
90.6606
 30
0.0
 40
0.5
 41
0.5
  0
VERTEX
  8
0
 10
260.343
 20
90.5046
 30
0.0
 40
0.5
 41
0.5
  0
VERTEX
  8
0
 10
259.823
 20
90.5046
 30
0.0
 40
0.5
 41
0.5
  0
VERTEX
  8
0
 10
259.823
 20
92.7488
 30
0.0
 40
0.5
 41
0.5
  0
VERTEX
  8
0
 10
260.109
 20
92.7488
 30
0.0
 40
0.5
 41
0.5
  0
SEQEND
  8
0
  0
POLYLINE
8
0
 62
     0
 66
     1
 10
0
 20
0
 30
0.0
 70
     1
 40
0.5
 41
0.5
  0
VERTEX
  8
0
 10
260.13
 20
91.5667
 30
0.0
 40
0.5
 41
0.5
  0
VERTEX
  8
0
 10
260.13
 20
90.7417
 30
0.0
 40
0.5
 41
0.5
  0
VERTEX
  8
0
 10
260.217
 20
90.7312
 30
0.0
 40
0.5
 41
0.5
  0
VERTEX
  8
0
 10
260.298
 20
90.7268
 30
0.0
 40
0.5
 41
0.5
  0
VERTEX
  8
0
 10
260.631
 20
90.7913
 30
0.0
 40
0.5
 41
0.5
  0
VERTEX
  8
0
 10
260.808
 20
90.9338
 30
0.0
 40
0.5
 41
0.5
  0
VERTEX
  8
0
 10
260.851
 20
91.0208
 30
0.0
 40
0.5
 41
0.5
  0
VERTEX
  8
0
 10
260.865
 20
91.0928
 30
0.0
 40
0.5
 41
0.5
  0
VERTEX
  8
0
 10
260.865
 20
91.1108
 30
0.0
 40
0.5
 41
0.5
  0
VERTEX
  8
0
 10
260.865
 20
91.1318
 30
0.0
 40
0.5
 41
0.5
  0
VERTEX
  8
0
 10
260.686
 20
91.4617
 30
0.0
 40
0.5
 41
0.5
  0
VERTEX
  8
0
 10
260.13
 20
91.5637
 30
0.0
 40
0.5
 41
0.5
  0
VERTEX
  8
0
 10
260.13
 20
91.5667
 30
0.0
 40
0.5
 41
0.5
  0
SEQEND
  8
0
  0
POLYLINE
8
0
 62
     0
 66
     1
 10
0
 20
0
 30
0.0
 70
     1
 40
0.5
 41
0.5
  0
VERTEX
  8
0
 10
260.13
 20
92.5356
 30
0.0
 40
0.5
 41
0.5
  0
VERTEX
  8
0
 10
260.13
 20
91.7798
 30
0.0
 40
0.5
 41
0.5
  0
VERTEX
  8
0
 10
260.179
 20
91.7737
 30
0.0
 40
0.5
 41
0.5
  0
VERTEX
  8
0
 10
260.229
 20
91.7737
 30
0.0
 40
0.5
 41
0.5
  0
VERTEX
  8
0
 10
260.562
 20
91.8562
 30
0.0
 40
0.5
 41
0.5
  0
VERTEX
  8
0
 10
260.676
 20
92.1309
 30
0.0
 40
0.5
 41
0.5
  0
VERTEX
  8
0
 10
260.676
 20
92.1382
 30
0.0
 40
0.5
 41
0.5
  0
VERTEX
  8
0
 10
260.676
 20
92.1458
 30
0.0
 40
0.5
 41
0.5
  0
VERTEX
  8
0
 10
260.674
 20
92.2131
 30
0.0
 40
0.5
 41
0.5
  0
VERTEX
  8
0
 10
260.664
 20
92.2898
 30
0.0
 40
0.5
 41
0.5
  0
VERTEX
  8
0
 10
260.545
 20
92.4578
 30
0.0
 40
0.5
 41
0.5
  0
VERTEX
  8
0
 10
260.198
 20
92.5327
 30
0.0
 40
0.5
 41
0.5
  0
VERTEX
  8
0
 10
260.166
 20
92.5327
 30
0.0
 40
0.5
 41
0.5
  0
VERTEX
  8
0
 10
260.13
 20
92.5327
 30
0.0
 40
0.5
 41
0.5
  0
VERTEX
  8
0
 10
260.13
 20
92.5356
 30
0.0
 40
0.5
 41
0.5
  0
SEQEND
  8
0
  0
POLYLINE
8
0
 62
     0
 66
     1
 10
0
 20
0
 30
0.0
 70
     1
 40
0.5
 41
0.5
  0
VERTEX
  8
0
 10
289.816
 20
77.3416
 30
0.0
 40
0.5
 41
0.5
  0
VERTEX
  8
0
 10
289.841
 20
77.3806
 30
0.0
 40
0.5
 41
0.5
  0
VERTEX
  8
0
 10
289.888
 20
77.4375
 30
0.0
 40
0.5
 41
0.5
  0
VERTEX
  8
0
 10
290.007
 20
77.5156
 30
0.0
 40
0.5
 41
0.5
  0
VERTEX
  8
0
 10
290.195
 20
77.5518
 30
0.0
 40
0.5
 41
0.5
  0
VERTEX
  8
0
 10
290.25
 20
77.5486
 30
0.0
 40
0.5
 41
0.5
  0
VERTEX
  8
0
 10
290.305
 20
77.5396
 30
0.0
 40
0.5
 41
0.5
  0
VERTEX
  8
0
 10
290.466
 20
77.4661
 30
0.0
 40
0.5
 41
0.5
  0
VERTEX
  8
0
 10
290.596
 20
77.2935
 30
0.0
 40
0.5
 41
0.5
  0
VERTEX
  8
0
 10
290.622
 20
77.3311
 30
0.0
 40
0.5
 41
0.5
  0
VERTEX
  8
0
 10
290.65
 20
77.3687
 30
0.0
 40
0.5
 41
0.5
  0
VERTEX
  8
0
 10
290.806
 20
77.4946
 30
0.0
 40
0.5
 41
0.5
  0
VERTEX
  8
0
 10
291.038
 20
77.5544
 30
0.0
 40
0.5
 41
0.5
  0
VERTEX
  8
0
 10
291.066
 20
77.5544
 30
0.0
 40
0.5
 41
0.5
  0
VERTEX
  8
0
 10
291.092
 20
77.5518
 30
0.0
 40
0.5
 41
0.5
  0
VERTEX
  8
0
 10
291.417
 20
77.3596
 30
0.0
 40
0.5
 41
0.5
  0
VERTEX
  8
0
 10
291.493
 20
76.9365
 30
0.0
 40
0.5
 41
0.5
  0
VERTEX
  8
0
 10
291.493
 20
76.0906
 30
0.0
 40
0.5
 41
0.5
  0
VERTEX
  8
0
 10
291.232
 20
76.0906
 30
0.0
 40
0.5
 41
0.5
  0
VERTEX
  8
0
 10
291.232
 20
76.9397
 30
0.0
 40
0.5
 41
0.5
  0
VERTEX
  8
0
 10
291.174
 20
77.1946
 30
0.0
 40
0.5
 41
0.5
  0
VERTEX
  8
0
 10
290.975
 20
77.2935
 30
0.0
 40
0.5
 41
0.5
  0
VERTEX
  8
0
 10
290.75
 20
77.2112
 30
0.0
 40
0.5
 41
0.5
  0
VERTEX
  8
0
 10
290.666
 20
76.9155
 30
0.0
 40
0.5
 41
0.5
  0
VERTEX
  8
0
 10
290.666
 20
76.0906
 30
0.0
 40
0.5
 41
0.5
  0
VERTEX
  8
0
 10
290.384
 20
76.0906
 30
0.0
 40
0.5
 41
0.5
  0
VERTEX
  8
0
 10
290.384
 20
76.9875
 30
0.0
 40
0.5
 41
0.5
  0
VERTEX
  8
0
 10
290.319
 20
77.2036
 30
0.0
 40
0.5
 41
0.5
  0
VERTEX
  8
0
 10
290.179
 20
77.2876
 30
0.0
 40
0.5
 41
0.5
  0
VERTEX
  8
0
 10
290.151
 20
77.292
 30
0.0
 40
0.5
 41
0.5
  0
VERTEX
  8
0
 10
290.123
 20
77.2935
 30
0.0
 40
0.5
 41
0.5
  0
VERTEX
  8
0
 10
290.095
 20
77.2935
 30
0.0
 40
0.5
 41
0.5
  0
VERTEX
  8
0
 10
290.069
 20
77.2905
 30
0.0
 40
0.5
 41
0.5
  0
VERTEX
  8
0
 10
289.895
 20
77.2095
 30
0.0
 40
0.5
 41
0.5
  0
VERTEX
  8
0
 10
289.816
 20
76.9365
 30
0.0
 40
0.5
 41
0.5
  0
VERTEX
  8
0
 10
289.816
 20
76.0906
 30
0.0
 40
0.5
 41
0.5
  0
VERTEX
  8
0
 10
289.531
 20
76.0906
 30
0.0
 40
0.5
 41
0.5
  0
VERTEX
  8
0
 10
289.531
 20
77.4856
 30
0.0
 40
0.5
 41
0.5
  0
VERTEX
  8
0
 10
289.816
 20
77.4856
 30
0.0
 40
0.5
 41
0.5
  0
VERTEX
  8
0
 10
289.816
 20
77.3416
 30
0.0
 40
0.5
 41
0.5
  0
SEQEND
  8
0
  0
POLYLINE
8
0
 62
     0
 66
     1
 10
0
 20
0
 30
0.0
 70
     1
 40
0.5
 41
0.5
  0
VERTEX
  8
0
 10
292.197
 20
77.4856
 30
0.0
 40
0.5
 41
0.5
  0
VERTEX
  8
0
 10
292.197
 20
76.0906
 30
0.0
 40
0.5
 41
0.5
  0
VERTEX
  8
0
 10
291.915
 20
76.0906
 30
0.0
 40
0.5
 41
0.5
  0
VERTEX
  8
0
 10
291.915
 20
77.4856
 30
0.0
 40
0.5
 41
0.5
  0
VERTEX
  8
0
 10
292.197
 20
77.4856
 30
0.0
 40
0.5
 41
0.5
  0
SEQEND
  8
0
  0
POLYLINE
8
0
 62
     0
 66
     1
 10
0
 20
0
 30
0.0
 70
     1
 40
0.5
 41
0.5
  0
VERTEX
  8
0
 10
292.056
 20
78.3105
 30
0.0
 40
0.5
 41
0.5
  0
VERTEX
  8
0
 10
292.185
 20
78.2505
 30
0.0
 40
0.5
 41
0.5
  0
VERTEX
  8
0
 10
292.227
 20
78.1426
 30
0.0
 40
0.5
 41
0.5
  0
VERTEX
  8
0
 10
292.227
 20
78.1379
 30
0.0
 40
0.5
 41
0.5
  0
VERTEX
  8
0
 10
292.227
 20
78.1335
 30
0.0
 40
0.5
 41
0.5
  0
VERTEX
  8
0
 10
292.177
 20
78.0107
 30
0.0
 40
0.5
 41
0.5
  0
VERTEX
  8
0
 10
292.056
 20
77.9536
 30
0.0
 40
0.5
 41
0.5
  0
VERTEX
  8
0
 10
291.924
 20
78.0076
 30
0.0
 40
0.5
 41
0.5
  0
VERTEX
  8
0
 10
291.879
 20
78.1274
 30
0.0
 40
0.5
 41
0.5
  0
VERTEX
  8
0
 10
291.921
 20
78.2522
 30
0.0
 40
0.5
 41
0.5
  0
VERTEX
  8
0
 10
292.056
 20
78.3076
 30
0.0
 40
0.5
 41
0.5
  0
VERTEX
  8
0
 10
292.056
 20
78.3105
 30
0.0
 40
0.5
 41
0.5
  0
SEQEND
  8
0
  0
POLYLINE
8
0
 62
     0
 66
     1
 10
0
 20
0
 30
0.0
 70
     1
 40
0.5
 41
0.5
  0
VERTEX
  8
0
 10
292.88
 20
77.4856
 30
0.0
 40
0.5
 41
0.5
  0
VERTEX
  8
0
 10
292.88
 20
77.2966
 30
0.0
 40
0.5
 41
0.5
  0
VERTEX
  8
0
 10
292.964
 20
77.376
 30
0.0
 40
0.5
 41
0.5
  0
VERTEX
  8
0
 10
293.036
 20
77.4375
 30
0.0
 40
0.5
 41
0.5
  0
VERTEX
  8
0
 10
293.154
 20
77.4961
 30
0.0
 40
0.5
 41
0.5
  0
VERTEX
  8
0
 10
293.327
 20
77.5276
 30
0.0
 40
0.5
 41
0.5
  0
VERTEX
  8
0
 10
293.393
 20
77.5247
 30
0.0
 40
0.5
 41
0.5
  0
VERTEX
  8
0
 10
293.462
 20
77.5125
 30
0.0
 40
0.5
 41
0.5
  0
VERTEX
  8
0
 10
293.711
 20
77.3687
 30
0.0
 40
0.5
 41
0.5
  0
VERTEX
  8
0
 10
293.825
 20
77.0325
 30
0.0
 40
0.5
 41
0.5
  0
VERTEX
  8
0
 10
293.825
 20
76.0906
 30
0.0
 40
0.5
 41
0.5
  0
VERTEX
  8
0
 10
293.54
 20
76.0906
 30
0.0
 40
0.5
 41
0.5
  0
VERTEX
  8
0
 10
293.54
 20
77.0356
 30
0.0
 40
0.5
 41
0.5
  0
VERTEX
  8
0
 10
293.462
 20
77.2065
 30
0.0
 40
0.5
 41
0.5
  0
VERTEX
  8
0
 10
293.288
 20
77.2876
 30
0.0
 40
0.5
 41
0.5
  0
VERTEX
  8
0
 10
293.26
 20
77.292
 30
0.0
 40
0.5
 41
0.5
  0
VERTEX
  8
0
 10
293.234
 20
77.2935
 30
0.0
 40
0.5
 41
0.5
  0
VERTEX
  8
0
 10
293.229
 20
77.2935
 30
0.0
 40
0.5
 41
0.5
  0
VERTEX
  8
0
 10
293.225
 20
77.2935
 30
0.0
 40
0.5
 41
0.5
  0
VERTEX
  8
0
 10
293.003
 20
77.1946
 30
0.0
 40
0.5
 41
0.5
  0
VERTEX
  8
0
 10
292.901
 20
76.8916
 30
0.0
 40
0.5
 41
0.5
  0
VERTEX
  8
0
 10
292.901
 20
76.0906
 30
0.0
 40
0.5
 41
0.5
  0
VERTEX
  8
0
 10
292.619
 20
76.0906
 30
0.0
 40
0.5
 41
0.5
  0
VERTEX
  8
0
 10
292.619
 20
77.4856
 30
0.0
 40
0.5
 41
0.5
  0
VERTEX
  8
0
 10
292.88
 20
77.4856
 30
0.0
 40
0.5
 41
0.5
  0
SEQEND
  8
0
  0
POLYLINE
8
0
 62
     0
 66
     1
 10
0
 20
0
 30
0.0
 70
     1
 40
0.5
 41
0.5
  0
VERTEX
  8
0
 10
303.537
 20
77.6025
 30
0.0
 40
0.5
 41
0.5
  0
VERTEX
  8
0
 10
303.822
 20
77.6025
 30
0.0
 40
0.5
 41
0.5
  0
VERTEX
  8
0
 10
303.822
 20
76.9875
 30
0.0
 40
0.5
 41
0.5
  0
VERTEX
  8
0
 10
304.458
 20
76.9875
 30
0.0
 40
0.5
 41
0.5
  0
VERTEX
  8
0
 10
304.458
 20
76.7295
 30
0.0
 40
0.5
 41
0.5
  0
VERTEX
  8
0
 10
303.822
 20
76.7295
 30
0.0
 40
0.5
 41
0.5
  0
VERTEX
  8
0
 10
303.822
 20
76.0906
 30
0.0
 40
0.5
 41
0.5
  0
VERTEX
  8
0
 10
303.537
 20
76.0906
 30
0.0
 40
0.5
 41
0.5
  0
VERTEX
  8
0
 10
303.537
 20
76.7295
 30
0.0
 40
0.5
 41
0.5
  0
VERTEX
  8
0
 10
302.922
 20
76.7295
 30
0.0
 40
0.5
 41
0.5
  0
VERTEX
  8
0
 10
302.922
 20
76.9875
 30
0.0
 40
0.5
 41
0.5
  0
VERTEX
  8
0
 10
303.537
 20
76.9875
 30
0.0
 40
0.5
 41
0.5
  0
VERTEX
  8
0
 10
303.537
 20
77.6025
 30
0.0
 40
0.5
 41
0.5
  0
SEQEND
  8
0
  0
POLYLINE
8
0
 62
     0
 66
     1
 10
0
 20
0
 30
0.0
 70
     1
 40
0.5
 41
0.5
  0
VERTEX
  8
0
 10
304.882
 20
78.0977
 30
0.0
 40
0.5
 41
0.5
  0
VERTEX
  8
0
 10
305.047
 20
78.3826
 30
0.0
 40
0.5
 41
0.5
  0
VERTEX
  8
0
 10
305.545
 20
78.3826
 30
0.0
 40
0.5
 41
0.5
  0
VERTEX
  8
0
 10
305.545
 20
76.0906
 30
0.0
 40
0.5
 41
0.5
  0
VERTEX
  8
0
 10
305.26
 20
76.0906
 30
0.0
 40
0.5
 41
0.5
  0
VERTEX
  8
0
 10
305.26
 20
78.0977
 30
0.0
 40
0.5
 41
0.5
  0
VERTEX
  8
0
 10
304.882
 20
78.0977
 30
0.0
 40
0.5
 41
0.5
  0
SEQEND
  8
0
  0
POLYLINE
8
0
 62
     0
 66
     1
 10
0
 20
0
 30
0.0
 70
     1
 40
0.5
 41
0.5
  0
VERTEX
  8
0
 10
307.409
 20
77.3416
 30
0.0
 40
0.5
 41
0.5
  0
VERTEX
  8
0
 10
307.538
 20
77.5439
 30
0.0
 40
0.5
 41
0.5
  0
VERTEX
  8
0
 10
307.577
 20
77.7256
 30
0.0
 40
0.5
 41
0.5
  0
VERTEX
  8
0
 10
307.456
 20
78.0015
 30
0.0
 40
0.5
 41
0.5
  0
VERTEX
  8
0
 10
307.181
 20
78.1187
 30
0.0
 40
0.5
 41
0.5
  0
VERTEX
  8
0
 10
307.165
 20
78.1187
 30
0.0
 40
0.5
 41
0.5
  0
VERTEX
  8
0
 10
307.148
 20
78.1187
 30
0.0
 40
0.5
 41
0.5
  0
VERTEX
  8
0
 10
306.847
 20
78.0105
 30
0.0
 40
0.5
 41
0.5
  0
VERTEX
  8
0
 10
306.719
 20
77.7734
 30
0.0
 40
0.5
 41
0.5
  0
VERTEX
  8
0
 10
306.719
 20
77.7615
 30
0.0
 40
0.5
 41
0.5
  0
VERTEX
  8
0
 10
306.719
 20
77.7495
 30
0.0
 40
0.5
 41
0.5
  0
VERTEX
  8
0
 10
306.719
 20
77.7419
 30
0.0
 40
0.5
 41
0.5
  0
VERTEX
  8
0
 10
306.722
 20
77.7346
 30
0.0
 40
0.5
 41
0.5
  0
VERTEX
  8
0
 10
306.722
 20
77.7256
 30
0.0
 40
0.5
 41
0.5
  0
VERTEX
  8
0
 10
306.722
 20
77.7166
 30
0.0
 40
0.5
 41
0.5
  0
VERTEX
  8
0
 10
306.416
 20
77.7195
 30
0.0
 40
0.5
 41
0.5
  0
VERTEX
  8
0
 10
306.62
 20
78.1816
 30
0.0
 40
0.5
 41
0.5
  0
VERTEX
  8
0
 10
307.124
 20
78.3796
 30
0.0
 40
0.5
 41
0.5
  0
VERTEX
  8
0
 10
307.142
 20
78.3796
 30
0.0
 40
0.5
 41
0.5
  0
VERTEX
  8
0
 10
307.16
 20
78.3796
 30
0.0
 40
0.5
 41
0.5
  0
VERTEX
  8
0
 10
307.691
 20
78.1921
 30
0.0
 40
0.5
 41
0.5
  0
VERTEX
  8
0
 10
307.892
 20
77.7375
 30
0.0
 40
0.5
 41
0.5
  0
VERTEX
  8
0
 10
307.877
 20
77.5981
 30
0.0
 40
0.5
 41
0.5
  0
VERTEX
  8
0
 10
307.829
 20
77.4585
 30
0.0
 40
0.5
 41
0.5
  0
VERTEX
  8
0
 10
307.771
 20
77.3506
 30
0.0
 40
0.5
 41
0.5
  0
VERTEX
  8
0
 10
307.691
 20
77.2456
 30
0.0
 40
0.5
 41
0.5
  0
VERTEX
  8
0
 10
306.935
 20
76.3516
 30
0.0
 40
0.5
 41
0.5
  0
VERTEX
  8
0
 10
307.856
 20
76.3516
 30
0.0
 40
0.5
 41
0.5
  0
VERTEX
  8
0
 10
307.856
 20
76.0906
 30
0.0
 40
0.5
 41
0.5
  0
VERTEX
  8
0
 10
306.392
 20
76.0906
 30
0.0
 40
0.5
 41
0.5
  0
VERTEX
  8
0
 10
307.409
 20
77.3416
 30
0.0
 40
0.5
 41
0.5
  0
SEQEND
  8
0
  0
POLYLINE
8
0
 62
     0
 66
     1
 10
0
 20
0
 30
0.0
 70
     1
 40
0.5
 41
0.5
  0
VERTEX
  8
0
 10
309.462
 20
78.7126
 30
0.0
 40
0.5
 41
0.5
  0
VERTEX
  8
0
 10
309.462
 20
76.0906
 30
0.0
 40
0.5
 41
0.5
  0
VERTEX
  8
0
 10
309.201
 20
76.0906
 30
0.0
 40
0.5
 41
0.5
  0
VERTEX
  8
0
 10
309.201
 20
76.3276
 30
0.0
 40
0.5
 41
0.5
  0
VERTEX
  8
0
 10
309.102
 20
76.197
 30
0.0
 40
0.5
 41
0.5
  0
VERTEX
  8
0
 10
308.994
 20
76.1116
 30
0.0
 40
0.5
 41
0.5
  0
VERTEX
  8
0
 10
308.85
 20
76.0576
 30
0.0
 40
0.5
 41
0.5
  0
VERTEX
  8
0
 10
308.73
 20
76.0425
 30
0.0
 40
0.5
 41
0.5
  0
VERTEX
  8
0
 10
308.712
 20
76.0425
 30
0.0
 40
0.5
 41
0.5
  0
VERTEX
  8
0
 10
308.694
 20
76.0425
 30
0.0
 40
0.5
 41
0.5
  0
VERTEX
  8
0
 10
308.28
 20
76.1851
 30
0.0
 40
0.5
 41
0.5
  0
VERTEX
  8
0
 10
308.067
 20
76.5076
 30
0.0
 40
0.5
 41
0.5
  0
VERTEX
  8
0
 10
308.033
 20
76.644
 30
0.0
 40
0.5
 41
0.5
  0
VERTEX
  8
0
 10
308.022
 20
76.7715
 30
0.0
 40
0.5
 41
0.5
  0
VERTEX
  8
0
 10
308.216
 20
77.3401
 30
0.0
 40
0.5
 41
0.5
  0
VERTEX
  8
0
 10
308.643
 20
77.5486
 30
0.0
 40
0.5
 41
0.5
  0
VERTEX
  8
0
 10
308.675
 20
77.5515
 30
0.0
 40
0.5
 41
0.5
  0
VERTEX
  8
0
 10
308.706
 20
77.5515
 30
0.0
 40
0.5
 41
0.5
  0
VERTEX
  8
0
 10
308.781
 20
77.5471
 30
0.0
 40
0.5
 41
0.5
  0
VERTEX
  8
0
 10
308.859
 20
77.5334
 30
0.0
 40
0.5
 41
0.5
  0
VERTEX
  8
0
 10
309.041
 20
77.4526
 30
0.0
 40
0.5
 41
0.5
  0
VERTEX
  8
0
 10
309.18
 20
77.2935
 30
0.0
 40
0.5
 41
0.5
  0
VERTEX
  8
0
 10
309.18
 20
78.7126
 30
0.0
 40
0.5
 41
0.5
  0
VERTEX
  8
0
 10
309.462
 20
78.7126
 30
0.0
 40
0.5
 41
0.5
  0
SEQEND
  8
0
  0
POLYLINE
8
0
 62
     0
 66
     1
 10
0
 20
0
 30
0.0
 70
     1
 40
0.5
 41
0.5
  0
VERTEX
  8
0
 10
309.18
 20
76.8225
 30
0.0
 40
0.5
 41
0.5
  0
VERTEX
  8
0
 10
309.074
 20
77.1826
 30
0.0
 40
0.5
 41
0.5
  0
VERTEX
  8
0
 10
308.754
 20
77.3145
 30
0.0
 40
0.5
 41
0.5
  0
VERTEX
  8
0
 10
308.45
 20
77.187
 30
0.0
 40
0.5
 41
0.5
  0
VERTEX
  8
0
 10
308.316
 20
76.9065
 30
0.0
 40
0.5
 41
0.5
  0
VERTEX
  8
0
 10
308.307
 20
76.8391
 30
0.0
 40
0.5
 41
0.5
  0
VERTEX
  8
0
 10
308.304
 20
76.7715
 30
0.0
 40
0.5
 41
0.5
  0
VERTEX
  8
0
 10
308.313
 20
76.677
 30
0.0
 40
0.5
 41
0.5
  0
VERTEX
  8
0
 10
308.343
 20
76.5706
 30
0.0
 40
0.5
 41
0.5
  0
VERTEX
  8
0
 10
308.48
 20
76.3679
 30
0.0
 40
0.5
 41
0.5
  0
VERTEX
  8
0
 10
308.754
 20
76.2766
 30
0.0
 40
0.5
 41
0.5
  0
VERTEX
  8
0
 10
309.05
 20
76.4041
 30
0.0
 40
0.5
 41
0.5
  0
VERTEX
  8
0
 10
309.168
 20
76.6846
 30
0.0
 40
0.5
 41
0.5
  0
VERTEX
  8
0
 10
309.177
 20
76.752
 30
0.0
 40
0.5
 41
0.5
  0
VERTEX
  8
0
 10
309.18
 20
76.8196
 30
0.0
 40
0.5
 41
0.5
  0
VERTEX
  8
0
 10
309.18
 20
76.8225
 30
0.0
 40
0.5
 41
0.5
  0
SEQEND
  8
0
  0
POLYLINE
8
0
 62
     0
 66
     1
 10
0
 20
0
 30
0.0
 70
     1
 40
0.5
 41
0.5
  0
VERTEX
  8
0
 10
310.101
 20
78.3345
 30
0.0
 40
0.5
 41
0.5
  0
VERTEX
  8
0
 10
310.213
 20
78.3315
 30
0.0
 40
0.5
 41
0.5
  0
VERTEX
  8
0
 10
310.332
 20
78.3254
 30
0.0
 40
0.5
 41
0.5
  0
VERTEX
  8
0
 10
310.746
 20
78.2175
 30
0.0
 40
0.5
 41
0.5
  0
VERTEX
  8
0
 10
310.95
 20
77.8125
 30
0.0
 40
0.5
 41
0.5
  0
VERTEX
  8
0
 10
310.879
 20
77.4929
 30
0.0
 40
0.5
 41
0.5
  0
VERTEX
  8
0
 10
310.667
 20
77.3145
 30
0.0
 40
0.5
 41
0.5
  0
VERTEX
  8
0
 10
310.701
 20
77.3115
 30
0.0
 40
0.5
 41
0.5
  0
VERTEX
  8
0
 10
310.734
 20
77.3025
 30
0.0
 40
0.5
 41
0.5
  0
VERTEX
  8
0
 10
311.029
 20
77.1016
 30
0.0
 40
0.5
 41
0.5
  0
VERTEX
  8
0
 10
311.163
 20
76.7026
 30
0.0
 40
0.5
 41
0.5
  0
VERTEX
  8
0
 10
310.927
 20
76.2466
 30
0.0
 40
0.5
 41
0.5
  0
VERTEX
  8
0
 10
310.335
 20
76.0906
 30
0.0
 40
0.5
 41
0.5
  0
VERTEX
  8
0
 10
309.816
 20
76.0906
 30
0.0
 40
0.5
 41
0.5
  0
VERTEX
  8
0
 10
309.816
 20
78.3345
 30
0.0
 40
0.5
 41
0.5
  0
VERTEX
  8
0
 10
310.101
 20
78.3345
 30
0.0
 40
0.5
 41
0.5
  0
SEQEND
  8
0
  0
POLYLINE
8
0
 62
     0
 66
     1
 10
0
 20
0
 30
0.0
 70
     1
 40
0.5
 41
0.5
  0
VERTEX
  8
0
 10
310.122
 20
77.1526
 30
0.0
 40
0.5
 41
0.5
  0
VERTEX
  8
0
 10
310.122
 20
76.3276
 30
0.0
 40
0.5
 41
0.5
  0
VERTEX
  8
0
 10
310.208
 20
76.3171
 30
0.0
 40
0.5
 41
0.5
  0
VERTEX
  8
0
 10
310.29
 20
76.3125
 30
0.0
 40
0.5
 41
0.5
  0
VERTEX
  8
0
 10
310.623
 20
76.377
 30
0.0
 40
0.5
 41
0.5
  0
VERTEX
  8
0
 10
310.8
 20
76.5195
 30
0.0
 40
0.5
 41
0.5
  0
VERTEX
  8
0
 10
310.843
 20
76.6064
 30
0.0
 40
0.5
 41
0.5
  0
VERTEX
  8
0
 10
310.857
 20
76.6785
 30
0.0
 40
0.5
 41
0.5
  0
VERTEX
  8
0
 10
310.857
 20
76.6965
 30
0.0
 40
0.5
 41
0.5
  0
VERTEX
  8
0
 10
310.857
 20
76.7175
 30
0.0
 40
0.5
 41
0.5
  0
VERTEX
  8
0
 10
310.678
 20
77.0476
 30
0.0
 40
0.5
 41
0.5
  0
VERTEX
  8
0
 10
310.122
 20
77.1497
 30
0.0
 40
0.5
 41
0.5
  0
VERTEX
  8
0
 10
310.122
 20
77.1526
 30
0.0
 40
0.5
 41
0.5
  0
SEQEND
  8
0
  0
POLYLINE
8
0
 62
     0
 66
     1
 10
0
 20
0
 30
0.0
 70
     1
 40
0.5
 41
0.5
  0
VERTEX
  8
0
 10
310.122
 20
78.1216
 30
0.0
 40
0.5
 41
0.5
  0
VERTEX
  8
0
 10
310.122
 20
77.3655
 30
0.0
 40
0.5
 41
0.5
  0
VERTEX
  8
0
 10
310.171
 20
77.3596
 30
0.0
 40
0.5
 41
0.5
  0
VERTEX
  8
0
 10
310.221
 20
77.3596
 30
0.0
 40
0.5
 41
0.5
  0
VERTEX
  8
0
 10
310.554
 20
77.4421
 30
0.0
 40
0.5
 41
0.5
  0
VERTEX
  8
0
 10
310.667
 20
77.7166
 30
0.0
 40
0.5
 41
0.5
  0
VERTEX
  8
0
 10
310.667
 20
77.7241
 30
0.0
 40
0.5
 41
0.5
  0
VERTEX
  8
0
 10
310.667
 20
77.7314
 30
0.0
 40
0.5
 41
0.5
  0
VERTEX
  8
0
 10
310.666
 20
77.7991
 30
0.0
 40
0.5
 41
0.5
  0
VERTEX
  8
0
 10
310.656
 20
77.8755
 30
0.0
 40
0.5
 41
0.5
  0
VERTEX
  8
0
 10
310.537
 20
78.0435
 30
0.0
 40
0.5
 41
0.5
  0
VERTEX
  8
0
 10
310.191
 20
78.1187
 30
0.0
 40
0.5
 41
0.5
  0
VERTEX
  8
0
 10
310.158
 20
78.1187
 30
0.0
 40
0.5
 41
0.5
  0
VERTEX
  8
0
 10
310.122
 20
78.1187
 30
0.0
 40
0.5
 41
0.5
  0
VERTEX
  8
0
 10
310.122
 20
78.1216
 30
0.0
 40
0.5
 41
0.5
  0
SEQEND
  8
0
  0
POLYLINE
8
0
 62
     0
 66
     1
 10
0
 20
0
 30
0.0
 70
     1
 40
0.5
 41
0.5
  0
VERTEX
  8
0
 10
296.351
 20
97.3967
 30
0.0
 40
0.5
 41
0.5
  0
VERTEX
  8
0
 10
296.351
 20
96.9248
 30
0.0
 40
0.5
 41
0.5
  0
VERTEX
  8
0
 10
296.117
 20
96.8408
 30
0.0
 40
0.5
 41
0.5
  0
VERTEX
  8
0
 10
295.863
 20
96.8127
 30
0.0
 40
0.5
 41
0.5
  0
VERTEX
  8
0
 10
295.831
 20
96.8127
 30
0.0
 40
0.5
 41
0.5
  0
VERTEX
  8
0
 10
295.799
 20
96.8127
 30
0.0
 40
0.5
 41
0.5
  0
VERTEX
  8
0
 10
295.139
 20
97.0728
 30
0.0
 40
0.5
 41
0.5
  0
VERTEX
  8
0
 10
294.839
 20
97.8008
 30
0.0
 40
0.5
 41
0.5
  0
VERTEX
  8
0
 10
295.145
 20
98.5808
 30
0.0
 40
0.5
 41
0.5
  0
VERTEX
  8
0
 10
295.839
 20
98.8367
 30
0.0
 40
0.5
 41
0.5
  0
VERTEX
  8
0
 10
296.115
 20
98.8088
 30
0.0
 40
0.5
 41
0.5
  0
VERTEX
  8
0
 10
296.379
 20
98.7168
 30
0.0
 40
0.5
 41
0.5
  0
VERTEX
  8
0
 10
296.379
 20
98.2488
 30
0.0
 40
0.5
 41
0.5
  0
VERTEX
  8
0
 10
296.277
 20
98.3508
 30
0.0
 40
0.5
 41
0.5
  0
VERTEX
  8
0
 10
296.171
 20
98.4209
 30
0.0
 40
0.5
 41
0.5
  0
VERTEX
  8
0
 10
295.961
 20
98.4868
 30
0.0
 40
0.5
 41
0.5
  0
VERTEX
  8
0
 10
295.815
 20
98.4968
 30
0.0
 40
0.5
 41
0.5
  0
VERTEX
  8
0
 10
295.357
 20
98.2708
 30
0.0
 40
0.5
 41
0.5
  0
VERTEX
  8
0
 10
295.199
 20
97.8328
 30
0.0
 40
0.5
 41
0.5
  0
VERTEX
  8
0
 10
295.199
 20
97.8267
 30
0.0
 40
0.5
 41
0.5
  0
VERTEX
  8
0
 10
295.199
 20
97.8208
 30
0.0
 40
0.5
 41
0.5
  0
VERTEX
  8
0
 10
295.349
 20
97.3748
 30
0.0
 40
0.5
 41
0.5
  0
VERTEX
  8
0
 10
295.787
 20
97.1729
 30
0.0
 40
0.5
 41
0.5
  0
VERTEX
  8
0
 10
295.801
 20
97.1729
 30
0.0
 40
0.5
 41
0.5
  0
VERTEX
  8
0
 10
295.815
 20
97.1729
 30
0.0
 40
0.5
 41
0.5
  0
VERTEX
  8
0
 10
295.985
 20
97.1907
 30
0.0
 40
0.5
 41
0.5
  0
VERTEX
  8
0
 10
296.263
 20
97.3208
 30
0.0
 40
0.5
 41
0.5
  0
VERTEX
  8
0
 10
296.309
 20
97.3547
 30
0.0
 40
0.5
 41
0.5
  0
VERTEX
  8
0
 10
296.351
 20
97.3928
 30
0.0
 40
0.5
 41
0.5
  0
VERTEX
  8
0
 10
296.351
 20
97.3967
 30
0.0
 40
0.5
 41
0.5
  0
SEQEND
  8
0
  0
POLYLINE
8
0
 62
     0
 66
     1
 10
0
 20
0
 30
0.0
 70
     1
 40
0.5
 41
0.5
  0
VERTEX
  8
0
 10
297.076
 20
100.357
 30
0.0
 40
0.5
 41
0.5
  0
VERTEX
  8
0
 10
297.076
 20
98.5288
 30
0.0
 40
0.5
 41
0.5
  0
VERTEX
  8
0
 10
297.322
 20
98.7549
 30
0.0
 40
0.5
 41
0.5
  0
VERTEX
  8
0
 10
297.64
 20
98.8408
 30
0.0
 40
0.5
 41
0.5
  0
VERTEX
  8
0
 10
298.114
 20
98.6926
 30
0.0
 40
0.5
 41
0.5
  0
VERTEX
  8
0
 10
298.304
 20
98.1169
 30
0.0
 40
0.5
 41
0.5
  0
VERTEX
  8
0
 10
298.304
 20
96.8928
 30
0.0
 40
0.5
 41
0.5
  0
VERTEX
  8
0
 10
297.956
 20
96.8928
 30
0.0
 40
0.5
 41
0.5
  0
VERTEX
  8
0
 10
297.956
 20
98.1208
 30
0.0
 40
0.5
 41
0.5
  0
VERTEX
  8
0
 10
297.846
 20
98.4128
 30
0.0
 40
0.5
 41
0.5
  0
VERTEX
  8
0
 10
297.548
 20
98.4968
 30
0.0
 40
0.5
 41
0.5
  0
VERTEX
  8
0
 10
297.182
 20
98.3586
 30
0.0
 40
0.5
 41
0.5
  0
VERTEX
  8
0
 10
297.076
 20
97.9607
 30
0.0
 40
0.5
 41
0.5
  0
VERTEX
  8
0
 10
297.076
 20
96.8928
 30
0.0
 40
0.5
 41
0.5
  0
VERTEX
  8
0
 10
296.696
 20
96.8928
 30
0.0
 40
0.5
 41
0.5
  0
VERTEX
  8
0
 10
296.696
 20
100.357
 30
0.0
 40
0.5
 41
0.5
  0
VERTEX
  8
0
 10
297.076
 20
100.357
 30
0.0
 40
0.5
 41
0.5
  0
SEQEND
  8
0
  0
POLYLINE
8
0
 62
     0
 66
     1
 10
0
 20
0
 30
0.0
 70
     1
 40
0.5
 41
0.5
  0
VERTEX
  8
0
 10
299.69
 20
98.3408
 30
0.0
 40
0.5
 41
0.5
  0
VERTEX
  8
0
 10
299.69
 20
98.0247
 30
0.0
 40
0.5
 41
0.5
  0
VERTEX
  8
0
 10
298.806
 20
98.0247
 30
0.0
 40
0.5
 41
0.5
  0
VERTEX
  8
0
 10
298.806
 20
98.3408
 30
0.0
 40
0.5
 41
0.5
  0
VERTEX
  8
0
 10
299.69
 20
98.3408
 30
0.0
 40
0.5
 41
0.5
  0
SEQEND
  8
0
  0
POLYLINE
8
0
 62
     0
 66
     1
 10
0
 20
0
 30
0.0
 70
     1
 40
0.5
 41
0.5
  0
VERTEX
  8
0
 10
301.801
 20
97.6487
 30
0.0
 40
0.5
 41
0.5
  0
VERTEX
  8
0
 10
302.149
 20
97.6487
 30
0.0
 40
0.5
 41
0.5
  0
VERTEX
  8
0
 10
302.149
 20
97.3328
 30
0.0
 40
0.5
 41
0.5
  0
VERTEX
  8
0
 10
301.801
 20
97.3328
 30
0.0
 40
0.5
 41
0.5
  0
VERTEX
  8
0
 10
301.801
 20
96.8928
 30
0.0
 40
0.5
 41
0.5
  0
VERTEX
  8
0
 10
301.425
 20
96.8928
 30
0.0
 40
0.5
 41
0.5
  0
VERTEX
  8
0
 10
301.425
 20
97.3328
 30
0.0
 40
0.5
 41
0.5
  0
VERTEX
  8
0
 10
299.945
 20
97.3328
 30
0.0
 40
0.5
 41
0.5
  0
VERTEX
  8
0
 10
301.801
 20
100.041
 30
0.0
 40
0.5
 41
0.5
  0
VERTEX
  8
0
 10
301.801
 20
97.6487
 30
0.0
 40
0.5
 41
0.5
  0
SEQEND
  8
0
  0
POLYLINE
8
0
 62
     0
 66
     1
 10
0
 20
0
 30
0.0
 70
     1
 40
0.5
 41
0.5
  0
VERTEX
  8
0
 10
300.573
 20
97.6487
 30
0.0
 40
0.5
 41
0.5
  0
VERTEX
  8
0
 10
301.425
 20
97.6487
 30
0.0
 40
0.5
 41
0.5
  0
VERTEX
  8
0
 10
301.425
 20
98.9407
 30
0.0
 40
0.5
 41
0.5
  0
VERTEX
  8
0
 10
300.573
 20
97.6487
 30
0.0
 40
0.5
 41
0.5
  0
SEQEND
  8
0
  0
POLYLINE
8
0
 62
     0
 66
     1
 10
0
 20
0
 30
0.0
 70
     1
 40
0.5
 41
0.5
  0
VERTEX
  8
0
 10
296.016
 20
91.6387
 30
0.0
 40
0.5
 41
0.5
  0
VERTEX
  8
0
 10
296.013
 20
91.6582
 30
0.0
 40
0.5
 41
0.5
  0
VERTEX
  8
0
 10
296.013
 20
91.6838
 30
0.0
 40
0.5
 41
0.5
  0
VERTEX
  8
0
 10
296.036
 20
91.9116
 30
0.0
 40
0.5
 41
0.5
  0
VERTEX
  8
0
 10
296.115
 20
92.2117
 30
0.0
 40
0.5
 41
0.5
  0
VERTEX
  8
0
 10
296.358
 20
92.6287
 30
0.0
 40
0.5
 41
0.5
  0
VERTEX
  8
0
 10
296.793
 20
92.8176
 30
0.0
 40
0.5
 41
0.5
  0
VERTEX
  8
0
 10
297.36
 20
92.5012
 30
0.0
 40
0.5
 41
0.5
  0
VERTEX
  8
0
 10
297.591
 20
91.8066
 30
0.0
 40
0.5
 41
0.5
  0
VERTEX
  8
0
 10
297.596
 20
91.7451
 30
0.0
 40
0.5
 41
0.5
  0
VERTEX
  8
0
 10
297.597
 20
91.6838
 30
0.0
 40
0.5
 41
0.5
  0
VERTEX
  8
0
 10
297.588
 20
91.4946
 30
0.0
 40
0.5
 41
0.5
  0
VERTEX
  8
0
 10
297.561
 20
91.2937
 30
0.0
 40
0.5
 41
0.5
  0
VERTEX
  8
0
 10
297.327
 20
90.7178
 30
0.0
 40
0.5
 41
0.5
  0
VERTEX
  8
0
 10
296.817
 20
90.4568
 30
0.0
 40
0.5
 41
0.5
  0
VERTEX
  8
0
 10
296.339
 20
90.6563
 30
0.0
 40
0.5
 41
0.5
  0
VERTEX
  8
0
 10
296.097
 20
91.0957
 30
0.0
 40
0.5
 41
0.5
  0
VERTEX
  8
0
 10
296.033
 20
91.4001
 30
0.0
 40
0.5
 41
0.5
  0
VERTEX
  8
0
 10
296.016
 20
91.6357
 30
0.0
 40
0.5
 41
0.5
  0
VERTEX
  8
0
 10
296.016
 20
91.6387
 30
0.0
 40
0.5
 41
0.5
  0
SEQEND
  8
0
  0
POLYLINE
8
0
 62
     0
 66
     1
 10
0
 20
0
 30
0.0
 70
     1
 40
0.5
 41
0.5
  0
VERTEX
  8
0
 10
297.315
 20
91.6628
 30
0.0
 40
0.5
 41
0.5
  0
VERTEX
  8
0
 10
297.198
 20
92.2568
 30
0.0
 40
0.5
 41
0.5
  0
VERTEX
  8
0
 10
296.943
 20
92.5479
 30
0.0
 40
0.5
 41
0.5
  0
VERTEX
  8
0
 10
296.891
 20
92.5703
 30
0.0
 40
0.5
 41
0.5
  0
VERTEX
  8
0
 10
296.841
 20
92.5808
 30
0.0
 40
0.5
 41
0.5
  0
VERTEX
  8
0
 10
296.831
 20
92.5823
 30
0.0
 40
0.5
 41
0.5
  0
VERTEX
  8
0
 10
296.82
 20
92.5837
 30
0.0
 40
0.5
 41
0.5
  0
VERTEX
  8
0
 10
296.81
 20
92.5837
 30
0.0
 40
0.5
 41
0.5
  0
VERTEX
  8
0
 10
296.799
 20
92.5837
 30
0.0
 40
0.5
 41
0.5
  0
VERTEX
  8
0
 10
296.501
 20
92.4128
 30
0.0
 40
0.5
 41
0.5
  0
VERTEX
  8
0
 10
296.346
 20
92.0378
 30
0.0
 40
0.5
 41
0.5
  0
VERTEX
  8
0
 10
296.309
 20
91.8203
 30
0.0
 40
0.5
 41
0.5
  0
VERTEX
  8
0
 10
296.298
 20
91.6357
 30
0.0
 40
0.5
 41
0.5
  0
VERTEX
  8
0
 10
296.31
 20
91.4558
 30
0.0
 40
0.5
 41
0.5
  0
VERTEX
  8
0
 10
296.349
 20
91.2427
 30
0.0
 40
0.5
 41
0.5
  0
VERTEX
  8
0
 10
296.504
 20
90.8796
 30
0.0
 40
0.5
 41
0.5
  0
VERTEX
  8
0
 10
296.793
 20
90.7148
 30
0.0
 40
0.5
 41
0.5
  0
VERTEX
  8
0
 10
297.188
 20
90.9922
 30
0.0
 40
0.5
 41
0.5
  0
VERTEX
  8
0
 10
297.315
 20
91.6597
 30
0.0
 40
0.5
 41
0.5
  0
VERTEX
  8
0
 10
297.315
 20
91.6628
 30
0.0
 40
0.5
 41
0.5
  0
SEQEND
  8
0
  0
POLYLINE
8
0
 62
     0
 66
     1
 10
0
 20
0
 30
0.0
 70
     1
 40
0.5
 41
0.5
  0
VERTEX
  8
0
 10
299.156
 20
93.1267
 30
0.0
 40
0.5
 41
0.5
  0
VERTEX
  8
0
 10
299.156
 20
90.5046
 30
0.0
 40
0.5
 41
0.5
  0
VERTEX
  8
0
 10
298.894
 20
90.5046
 30
0.0
 40
0.5
 41
0.5
  0
VERTEX
  8
0
 10
298.894
 20
90.7417
 30
0.0
 40
0.5
 41
0.5
  0
VERTEX
  8
0
 10
298.795
 20
90.6113
 30
0.0
 40
0.5
 41
0.5
  0
VERTEX
  8
0
 10
298.688
 20
90.5256
 30
0.0
 40
0.5
 41
0.5
  0
VERTEX
  8
0
 10
298.543
 20
90.4717
 30
0.0
 40
0.5
 41
0.5
  0
VERTEX
  8
0
 10
298.423
 20
90.4568
 30
0.0
 40
0.5
 41
0.5
  0
VERTEX
  8
0
 10
298.406
 20
90.4568
 30
0.0
 40
0.5
 41
0.5
  0
VERTEX
  8
0
 10
298.387
 20
90.4568
 30
0.0
 40
0.5
 41
0.5
  0
VERTEX
  8
0
 10
297.973
 20
90.5991
 30
0.0
 40
0.5
 41
0.5
  0
VERTEX
  8
0
 10
297.76
 20
90.9216
 30
0.0
 40
0.5
 41
0.5
  0
VERTEX
  8
0
 10
297.726
 20
91.0583
 30
0.0
 40
0.5
 41
0.5
  0
VERTEX
  8
0
 10
297.715
 20
91.1858
 30
0.0
 40
0.5
 41
0.5
  0
VERTEX
  8
0
 10
297.909
 20
91.7542
 30
0.0
 40
0.5
 41
0.5
  0
VERTEX
  8
0
 10
298.336
 20
91.9626
 30
0.0
 40
0.5
 41
0.5
  0
VERTEX
  8
0
 10
298.368
 20
91.9658
 30
0.0
 40
0.5
 41
0.5
  0
VERTEX
  8
0
 10
298.399
 20
91.9658
 30
0.0
 40
0.5
 41
0.5
  0
VERTEX
  8
0
 10
298.474
 20
91.9612
 30
0.0
 40
0.5
 41
0.5
  0
VERTEX
  8
0
 10
298.552
 20
91.9478
 30
0.0
 40
0.5
 41
0.5
  0
VERTEX
  8
0
 10
298.734
 20
91.8667
 30
0.0
 40
0.5
 41
0.5
  0
VERTEX
  8
0
 10
298.873
 20
91.7078
 30
0.0
 40
0.5
 41
0.5
  0
VERTEX
  8
0
 10
298.873
 20
93.1267
 30
0.0
 40
0.5
 41
0.5
  0
VERTEX
  8
0
 10
299.156
 20
93.1267
 30
0.0
 40
0.5
 41
0.5
  0
SEQEND
  8
0
  0
POLYLINE
8
0
 62
     0
 66
     1
 10
0
 20
0
 30
0.0
 70
     1
 40
0.5
 41
0.5
  0
VERTEX
  8
0
 10
298.873
 20
91.2368
 30
0.0
 40
0.5
 41
0.5
  0
VERTEX
  8
0
 10
298.767
 20
91.5967
 30
0.0
 40
0.5
 41
0.5
  0
VERTEX
  8
0
 10
298.448
 20
91.7288
 30
0.0
 40
0.5
 41
0.5
  0
VERTEX
  8
0
 10
298.143
 20
91.6013
 30
0.0
 40
0.5
 41
0.5
  0
VERTEX
  8
0
 10
298.01
 20
91.3208
 30
0.0
 40
0.5
 41
0.5
  0
VERTEX
  8
0
 10
298
 20
91.2532
 30
0.0
 40
0.5
 41
0.5
  0
VERTEX
  8
0
 10
297.997
 20
91.1858
 30
0.0
 40
0.5
 41
0.5
  0
VERTEX
  8
0
 10
298.006
 20
91.0913
 30
0.0
 40
0.5
 41
0.5
  0
VERTEX
  8
0
 10
298.036
 20
90.9846
 30
0.0
 40
0.5
 41
0.5
  0
VERTEX
  8
0
 10
298.173
 20
90.7822
 30
0.0
 40
0.5
 41
0.5
  0
VERTEX
  8
0
 10
298.448
 20
90.6907
 30
0.0
 40
0.5
 41
0.5
  0
VERTEX
  8
0
 10
298.743
 20
90.8184
 30
0.0
 40
0.5
 41
0.5
  0
VERTEX
  8
0
 10
298.861
 20
91.0986
 30
0.0
 40
0.5
 41
0.5
  0
VERTEX
  8
0
 10
298.87
 20
91.1663
 30
0.0
 40
0.5
 41
0.5
  0
VERTEX
  8
0
 10
298.873
 20
91.2336
 30
0.0
 40
0.5
 41
0.5
  0
VERTEX
  8
0
 10
298.873
 20
91.2368
 30
0.0
 40
0.5
 41
0.5
  0
SEQEND
  8
0
  0
POLYLINE
8
0
 62
     0
 66
     1
 10
0
 20
0
 30
0.0
 70
     1
 40
0.5
 41
0.5
  0
VERTEX
  8
0
 10
299.794
 20
92.7488
 30
0.0
 40
0.5
 41
0.5
  0
VERTEX
  8
0
 10
299.906
 20
92.7458
 30
0.0
 40
0.5
 41
0.5
  0
VERTEX
  8
0
 10
300.025
 20
92.7397
 30
0.0
 40
0.5
 41
0.5
  0
VERTEX
  8
0
 10
300.439
 20
92.6318
 30
0.0
 40
0.5
 41
0.5
  0
VERTEX
  8
0
 10
300.643
 20
92.2268
 30
0.0
 40
0.5
 41
0.5
  0
VERTEX
  8
0
 10
300.572
 20
91.9072
 30
0.0
 40
0.5
 41
0.5
  0
VERTEX
  8
0
 10
300.361
 20
91.7288
 30
0.0
 40
0.5
 41
0.5
  0
VERTEX
  8
0
 10
300.394
 20
91.7258
 30
0.0
 40
0.5
 41
0.5
  0
VERTEX
  8
0
 10
300.427
 20
91.7168
 30
0.0
 40
0.5
 41
0.5
  0
VERTEX
  8
0
 10
300.722
 20
91.5156
 30
0.0
 40
0.5
 41
0.5
  0
VERTEX
  8
0
 10
300.856
 20
91.1167
 30
0.0
 40
0.5
 41
0.5
  0
VERTEX
  8
0
 10
300.62
 20
90.6606
 30
0.0
 40
0.5
 41
0.5
  0
VERTEX
  8
0
 10
300.028
 20
90.5046
 30
0.0
 40
0.5
 41
0.5
  0
VERTEX
  8
0
 10
299.509
 20
90.5046
 30
0.0
 40
0.5
 41
0.5
  0
VERTEX
  8
0
 10
299.509
 20
92.7488
 30
0.0
 40
0.5
 41
0.5
  0
VERTEX
  8
0
 10
299.794
 20
92.7488
 30
0.0
 40
0.5
 41
0.5
  0
SEQEND
  8
0
  0
POLYLINE
8
0
 62
     0
 66
     1
 10
0
 20
0
 30
0.0
 70
     1
 40
0.5
 41
0.5
  0
VERTEX
  8
0
 10
299.815
 20
91.5667
 30
0.0
 40
0.5
 41
0.5
  0
VERTEX
  8
0
 10
299.815
 20
90.7417
 30
0.0
 40
0.5
 41
0.5
  0
VERTEX
  8
0
 10
299.902
 20
90.7312
 30
0.0
 40
0.5
 41
0.5
  0
VERTEX
  8
0
 10
299.983
 20
90.7268
 30
0.0
 40
0.5
 41
0.5
  0
VERTEX
  8
0
 10
300.316
 20
90.7913
 30
0.0
 40
0.5
 41
0.5
  0
VERTEX
  8
0
 10
300.493
 20
90.9338
 30
0.0
 40
0.5
 41
0.5
  0
VERTEX
  8
0
 10
300.536
 20
91.0208
 30
0.0
 40
0.5
 41
0.5
  0
VERTEX
  8
0
 10
300.55
 20
91.0928
 30
0.0
 40
0.5
 41
0.5
  0
VERTEX
  8
0
 10
300.55
 20
91.1108
 30
0.0
 40
0.5
 41
0.5
  0
VERTEX
  8
0
 10
300.55
 20
91.1318
 30
0.0
 40
0.5
 41
0.5
  0
VERTEX
  8
0
 10
300.371
 20
91.4617
 30
0.0
 40
0.5
 41
0.5
  0
VERTEX
  8
0
 10
299.815
 20
91.5637
 30
0.0
 40
0.5
 41
0.5
  0
VERTEX
  8
0
 10
299.815
 20
91.5667
 30
0.0
 40
0.5
 41
0.5
  0
SEQEND
  8
0
  0
POLYLINE
8
0
 62
     0
 66
     1
 10
0
 20
0
 30
0.0
 70
     1
 40
0.5
 41
0.5
  0
VERTEX
  8
0
 10
299.815
 20
92.5356
 30
0.0
 40
0.5
 41
0.5
  0
VERTEX
  8
0
 10
299.815
 20
91.7798
 30
0.0
 40
0.5
 41
0.5
  0
VERTEX
  8
0
 10
299.864
 20
91.7737
 30
0.0
 40
0.5
 41
0.5
  0
VERTEX
  8
0
 10
299.914
 20
91.7737
 30
0.0
 40
0.5
 41
0.5
  0
VERTEX
  8
0
 10
300.247
 20
91.8562
 30
0.0
 40
0.5
 41
0.5
  0
VERTEX
  8
0
 10
300.361
 20
92.1309
 30
0.0
 40
0.5
 41
0.5
  0
VERTEX
  8
0
 10
300.361
 20
92.1382
 30
0.0
 40
0.5
 41
0.5
  0
VERTEX
  8
0
 10
300.361
 20
92.1458
 30
0.0
 40
0.5
 41
0.5
  0
VERTEX
  8
0
 10
300.359
 20
92.2131
 30
0.0
 40
0.5
 41
0.5
  0
VERTEX
  8
0
 10
300.349
 20
92.2898
 30
0.0
 40
0.5
 41
0.5
  0
VERTEX
  8
0
 10
300.23
 20
92.4578
 30
0.0
 40
0.5
 41
0.5
  0
VERTEX
  8
0
 10
299.884
 20
92.5327
 30
0.0
 40
0.5
 41
0.5
  0
VERTEX
  8
0
 10
299.851
 20
92.5327
 30
0.0
 40
0.5
 41
0.5
  0
VERTEX
  8
0
 10
299.815
 20
92.5327
 30
0.0
 40
0.5
 41
0.5
  0
VERTEX
  8
0
 10
299.815
 20
92.5356
 30
0.0
 40
0.5
 41
0.5
  0
SEQEND
  8
0
  0
POLYLINE
8
0
 62
     0
 66
     1
 10
0
 20
0
 30
0.0
 40
0.5
 41
0.5
  0
VERTEX
  8
0
 10
70.8923
 20
111.971
 30
0.0
 40
0.5
 41
0.5
  0
VERTEX
  8
0
 10
75.2722
 20
111.971
 30
0.0
 40
0.5
 41
0.5
  0
SEQEND
  8
0
  0
POLYLINE
8
0
 62
     0
 66
     1
 10
0
 20
0
 30
0.0
 40
0.5
 41
0.5
  0
VERTEX
  8
0
 10
73.0823
 20
109.781
 30
0.0
 40
0.5
 41
0.5
  0
VERTEX
  8
0
 10
73.0823
 20
114.161
 30
0.0
 40
0.5
 41
0.5
  0
SEQEND
  8
0
  0
POLYLINE
8
0
 62
     0
 66
     1
 10
0
 20
0
 30
0.0
 40
0.5
 41
0.5
  0
VERTEX
  8
0
 10
70.8923
 20
75.1208
 30
0.0
 40
0.5
 41
0.5
  0
VERTEX
  8
0
 10
75.2722
 20
75.1208
 30
0.0
 40
0.5
 41
0.5
  0
SEQEND
  8
0
  0
POLYLINE
8
0
 62
     0
 66
     1
 10
0
 20
0
 30
0.0
 40
0.5
 41
0.5
  0
VERTEX
  8
0
 10
73.0823
 20
72.9309
 30
0.0
 40
0.5
 41
0.5
  0
VERTEX
  8
0
 10
73.0823
 20
77.3105
 30
0.0
 40
0.5
 41
0.5
  0
SEQEND
  8
0
  0
POLYLINE
8
0
 62
     0
 66
     1
 10
0
 20
0
 30
0.0
 40
0.5
 41
0.5
  0
VERTEX
  8
0
 10
354.357
 20
111.971
 30
0.0
 40
0.5
 41
0.5
  0
VERTEX
  8
0
 10
358.737
 20
111.971
 30
0.0
 40
0.5
 41
0.5
  0
SEQEND
  8
0
  0
POLYLINE
8
0
 62
     0
 66
     1
 10
0
 20
0
 30
0.0
 40
0.5
 41
0.5
  0
VERTEX
  8
0
 10
356.547
 20
109.781
 30
0.0
 40
0.5
 41
0.5
  0
VERTEX
  8
0
 10
356.547
 20
114.161
 30
0.0
 40
0.5
 41
0.5
  0
SEQEND
  8
0
  0
POLYLINE
8
0
 62
     0
 66
     1
 10
0
 20
0
 30
0.0
 40
0.5
 41
0.5
  0
VERTEX
  8
0
 10
354.357
 20
75.1208
 30
0.0
 40
0.5
 41
0.5
  0
VERTEX
  8
0
 10
358.737
 20
75.1208
 30
0.0
 40
0.5
 41
0.5
  0
SEQEND
  8
0
  0
POLYLINE
8
0
 62
     0
 66
     1
 10
0
 20
0
 30
0.0
 40
0.5
 41
0.5
  0
VERTEX
  8
0
 10
356.547
 20
72.9309
 30
0.0
 40
0.5
 41
0.5
  0
VERTEX
  8
0
 10
356.547
 20
77.3105
 30
0.0
 40
0.5
 41
0.5
  0
SEQEND
  8
0
  0
POLYLINE
8
0
 62
     0
 66
     1
 10
0
 20
0
 30
0.0
 70
     1
 40
0.5
 41
0.5
  0
VERTEX
  8
0
 10
175.13
 20
82.916
 30
0.0
 40
0.5
 41
0.5
  0
VERTEX
  8
0
 10
175.464
 20
84.571
 30
0.0
 40
0.5
 41
0.5
  0
VERTEX
  8
0
 10
176.375
 20
85.9226
 30
0.0
 40
0.5
 41
0.5
  0
VERTEX
  8
0
 10
177.727
 20
86.8337
 30
0.0
 40
0.5
 41
0.5
  0
VERTEX
  8
0
 10
179.382
 20
87.1677
 30
0.0
 40
0.5
 41
0.5
  0
VERTEX
  8
0
 10
181.036
 20
86.8337
 30
0.0
 40
0.5
 41
0.5
  0
VERTEX
  8
0
 10
182.388
 20
85.9226
 30
0.0
 40
0.5
 41
0.5
  0
VERTEX
  8
0
 10
183.299
 20
84.571
 30
0.0
 40
0.5
 41
0.5
  0
VERTEX
  8
0
 10
183.633
 20
82.916
 30
0.0
 40
0.5
 41
0.5
  0
VERTEX
  8
0
 10
183.299
 20
81.2612
 30
0.0
 40
0.5
 41
0.5
  0
VERTEX
  8
0
 10
182.388
 20
79.9097
 30
0.0
 40
0.5
 41
0.5
  0
VERTEX
  8
0
 10
181.036
 20
78.9985
 30
0.0
 40
0.5
 41
0.5
  0
VERTEX
  8
0
 10
179.382
 20
78.6643
 30
0.0
 40
0.5
 41
0.5
  0
VERTEX
  8
0
 10
177.727
 20
78.9985
 30
0.0
 40
0.5
 41
0.5
  0
VERTEX
  8
0
 10
176.375
 20
79.9097
 30
0.0
 40
0.5
 41
0.5
  0
VERTEX
  8
0
 10
175.464
 20
81.2612
 30
0.0
 40
0.5
 41
0.5
  0
VERTEX
  8
0
 10
175.13
 20
82.916
 30
0.0
 40
0.5
 41
0.5
  0
SEQEND
  8
0
  0
POLYLINE
8
0
 62
     0
 66
     1
 10
0
 20
0
 30
0.0
 70
     1
 40
0.5
 41
0.5
  0
VERTEX
  8
0
 10
179.063
 20
78.6663
 30
0.0
 40
0.5
 41
0.5
  0
VERTEX
  8
0
 10
179.063
 20
87.166
 30
0.0
 40
0.5
 41
0.5
  0
VERTEX
  8
0
 10
179.875
 20
87.166
 30
0.0
 40
0.5
 41
0.5
  0
VERTEX
  8
0
 10
179.875
 20
78.6663
 30
0.0
 40
0.5
 41
0.5
  0
VERTEX
  8
0
 10
179.063
 20
78.6663
 30
0.0
 40
0.5
 41
0.5
  0
SEQEND
  8
0
  0
POLYLINE
8
0
 62
     0
 66
     1
 10
0
 20
0
 30
0.0
 70
     1
 40
0.5
 41
0.5
  0
VERTEX
  8
0
 10
214.815
 20
82.916
 30
0.0
 40
0.5
 41
0.5
  0
VERTEX
  8
0
 10
215.149
 20
84.571
 30
0.0
 40
0.5
 41
0.5
  0
VERTEX
  8
0
 10
216.06
 20
85.9226
 30
0.0
 40
0.5
 41
0.5
  0
VERTEX
  8
0
 10
217.412
 20
86.8337
 30
0.0
 40
0.5
 41
0.5
  0
VERTEX
  8
0
 10
219.067
 20
87.1677
 30
0.0
 40
0.5
 41
0.5
  0
VERTEX
  8
0
 10
220.721
 20
86.8337
 30
0.0
 40
0.5
 41
0.5
  0
VERTEX
  8
0
 10
222.073
 20
85.9226
 30
0.0
 40
0.5
 41
0.5
  0
VERTEX
  8
0
 10
222.984
 20
84.571
 30
0.0
 40
0.5
 41
0.5
  0
VERTEX
  8
0
 10
223.318
 20
82.916
 30
0.0
 40
0.5
 41
0.5
  0
VERTEX
  8
0
 10
222.984
 20
81.2612
 30
0.0
 40
0.5
 41
0.5
  0
VERTEX
  8
0
 10
222.073
 20
79.9097
 30
0.0
 40
0.5
 41
0.5
  0
VERTEX
  8
0
 10
220.721
 20
78.9985
 30
0.0
 40
0.5
 41
0.5
  0
VERTEX
  8
0
 10
219.067
 20
78.6643
 30
0.0
 40
0.5
 41
0.5
  0
VERTEX
  8
0
 10
217.412
 20
78.9985
 30
0.0
 40
0.5
 41
0.5
  0
VERTEX
  8
0
 10
216.06
 20
79.9097
 30
0.0
 40
0.5
 41
0.5
  0
VERTEX
  8
0
 10
215.149
 20
81.2612
 30
0.0
 40
0.5
 41
0.5
  0
VERTEX
  8
0
 10
214.815
 20
82.916
 30
0.0
 40
0.5
 41
0.5
  0
SEQEND
  8
0
  0
POLYLINE
8
0
 62
     0
 66
     1
 10
0
 20
0
 30
0.0
 70
     1
 40
0.5
 41
0.5
  0
VERTEX
  8
0
 10
218.748
 20
78.6663
 30
0.0
 40
0.5
 41
0.5
  0
VERTEX
  8
0
 10
218.748
 20
87.166
 30
0.0
 40
0.5
 41
0.5
  0
VERTEX
  8
0
 10
219.56
 20
87.166
 30
0.0
 40
0.5
 41
0.5
  0
VERTEX
  8
0
 10
219.56
 20
78.6663
 30
0.0
 40
0.5
 41
0.5
  0
VERTEX
  8
0
 10
218.748
 20
78.6663
 30
0.0
 40
0.5
 41
0.5
  0
SEQEND
  8
0
  0
POLYLINE
8
0
 62
     0
 66
     1
 10
0
 20
0
 30
0.0
 70
     1
 40
0.5
 41
0.5
  0
VERTEX
  8
0
 10
254.5
 20
82.916
 30
0.0
 40
0.5
 41
0.5
  0
VERTEX
  8
0
 10
254.834
 20
84.571
 30
0.0
 40
0.5
 41
0.5
  0
VERTEX
  8
0
 10
255.745
 20
85.9226
 30
0.0
 40
0.5
 41
0.5
  0
VERTEX
  8
0
 10
257.096
 20
86.8337
 30
0.0
 40
0.5
 41
0.5
  0
VERTEX
  8
0
 10
258.752
 20
87.1677
 30
0.0
 40
0.5
 41
0.5
  0
VERTEX
  8
0
 10
260.406
 20
86.8337
 30
0.0
 40
0.5
 41
0.5
  0
VERTEX
  8
0
 10
261.758
 20
85.9226
 30
0.0
 40
0.5
 41
0.5
  0
VERTEX
  8
0
 10
262.669
 20
84.571
 30
0.0
 40
0.5
 41
0.5
  0
VERTEX
  8
0
 10
263.003
 20
82.916
 30
0.0
 40
0.5
 41
0.5
  0
VERTEX
  8
0
 10
262.669
 20
81.2612
 30
0.0
 40
0.5
 41
0.5
  0
VERTEX
  8
0
 10
261.758
 20
79.9097
 30
0.0
 40
0.5
 41
0.5
  0
VERTEX
  8
0
 10
260.406
 20
78.9985
 30
0.0
 40
0.5
 41
0.5
  0
VERTEX
  8
0
 10
258.752
 20
78.6643
 30
0.0
 40
0.5
 41
0.5
  0
VERTEX
  8
0
 10
257.096
 20
78.9985
 30
0.0
 40
0.5
 41
0.5
  0
VERTEX
  8
0
 10
255.745
 20
79.9097
 30
0.0
 40
0.5
 41
0.5
  0
VERTEX
  8
0
 10
254.834
 20
81.2612
 30
0.0
 40
0.5
 41
0.5
  0
VERTEX
  8
0
 10
254.5
 20
82.916
 30
0.0
 40
0.5
 41
0.5
  0
SEQEND
  8
0
  0
POLYLINE
8
0
 62
     0
 66
     1
 10
0
 20
0
 30
0.0
 70
     1
 40
0.5
 41
0.5
  0
VERTEX
  8
0
 10
258.433
 20
78.6663
 30
0.0
 40
0.5
 41
0.5
  0
VERTEX
  8
0
 10
258.433
 20
87.166
 30
0.0
 40
0.5
 41
0.5
  0
VERTEX
  8
0
 10
259.245
 20
87.166
 30
0.0
 40
0.5
 41
0.5
  0
VERTEX
  8
0
 10
259.245
 20
78.6663
 30
0.0
 40
0.5
 41
0.5
  0
VERTEX
  8
0
 10
258.433
 20
78.6663
 30
0.0
 40
0.5
 41
0.5
  0
SEQEND
  8
0
  0
POLYLINE
8
0
 62
     0
 66
     1
 10
0
 20
0
 30
0.0
 70
     1
 40
0.5
 41
0.5
  0
VERTEX
  8
0
 10
294.185
 20
82.916
 30
0.0
 40
0.5
 41
0.5
  0
VERTEX
  8
0
 10
294.519
 20
84.571
 30
0.0
 40
0.5
 41
0.5
  0
VERTEX
  8
0
 10
295.43
 20
85.9226
 30
0.0
 40
0.5
 41
0.5
  0
VERTEX
  8
0
 10
296.781
 20
86.8337
 30
0.0
 40
0.5
 41
0.5
  0
VERTEX
  8
0
 10
298.437
 20
87.1677
 30
0.0
 40
0.5
 41
0.5
  0
VERTEX
  8
0
 10
300.092
 20
86.8337
 30
0.0
 40
0.5
 41
0.5
  0
VERTEX
  8
0
 10
301.443
 20
85.9226
 30
0.0
 40
0.5
 41
0.5
  0
VERTEX
  8
0
 10
302.354
 20
84.571
 30
0.0
 40
0.5
 41
0.5
  0
VERTEX
  8
0
 10
302.688
 20
82.916
 30
0.0
 40
0.5
 41
0.5
  0
VERTEX
  8
0
 10
302.354
 20
81.2612
 30
0.0
 40
0.5
 41
0.5
  0
VERTEX
  8
0
 10
301.443
 20
79.9097
 30
0.0
 40
0.5
 41
0.5
  0
VERTEX
  8
0
 10
300.092
 20
78.9985
 30
0.0
 40
0.5
 41
0.5
  0
VERTEX
  8
0
 10
298.437
 20
78.6643
 30
0.0
 40
0.5
 41
0.5
  0
VERTEX
  8
0
 10
296.781
 20
78.9985
 30
0.0
 40
0.5
 41
0.5
  0
VERTEX
  8
0
 10
295.43
 20
79.9097
 30
0.0
 40
0.5
 41
0.5
  0
VERTEX
  8
0
 10
294.519
 20
81.2612
 30
0.0
 40
0.5
 41
0.5
  0
VERTEX
  8
0
 10
294.185
 20
82.916
 30
0.0
 40
0.5
 41
0.5
  0
SEQEND
  8
0
  0
POLYLINE
8
0
 62
     0
 66
     1
 10
0
 20
0
 30
0.0
 70
     1
 40
0.5
 41
0.5
  0
VERTEX
  8
0
 10
298.118
 20
78.6663
 30
0.0
 40
0.5
 41
0.5
  0
VERTEX
  8
0
 10
298.118
 20
87.166
 30
0.0
 40
0.5
 41
0.5
  0
VERTEX
  8
0
 10
298.93
 20
87.166
 30
0.0
 40
0.5
 41
0.5
  0
VERTEX
  8
0
 10
298.93
 20
78.6663
 30
0.0
 40
0.5
 41
0.5
  0
VERTEX
  8
0
 10
298.118
 20
78.6663
 30
0.0
 40
0.5
 41
0.5
  0
SEQEND
  8
0
  0
POLYLINE
8
0
 62
     0
 66
     1
 10
0
 20
0
 30
0.0
 40
0.5
 41
0.5
  0
VERTEX
  8
0
 10
179.099
 20
89.793
 30
0.0
 40
0.5
 41
0.5
  0
VERTEX
  8
0
 10
179.099
 20
87.0024
 30
0.0
 40
0.5
 41
0.5
  0
SEQEND
  8
0
  0
POLYLINE
8
0
 62
     0
 66
     1
 10
0
 20
0
 30
0.0
 40
0.5
 41
0.5
  0
VERTEX
  8
0
 10
179.693
 20
89.793
 30
0.0
 40
0.5
 41
0.5
  0
VERTEX
  8
0
 10
179.693
 20
87.0024
 30
0.0
 40
0.5
 41
0.5
  0
SEQEND
  8
0
  0
POLYLINE
8
0
 62
     0
 66
     1
 10
0
 20
0
 30
0.0
 40
0.5
 41
0.5
  0
VERTEX
  8
0
 10
175.697
 20
88.7332
 30
0.0
 40
0.5
 41
0.5
  0
VERTEX
  8
0
 10
177.092
 20
86.3164
 30
0.0
 40
0.5
 41
0.5
  0
SEQEND
  8
0
  0
POLYLINE
8
0
 62
     0
 66
     1
 10
0
 20
0
 30
0.0
 40
0.5
 41
0.5
  0
VERTEX
  8
0
 10
176.211
 20
89.0298
 30
0.0
 40
0.5
 41
0.5
  0
VERTEX
  8
0
 10
177.606
 20
86.613
 30
0.0
 40
0.5
 41
0.5
  0
SEQEND
  8
0
  0
POLYLINE
8
0
 62
     0
 66
     1
 10
0
 20
0
 30
0.0
 40
0.5
 41
0.5
  0
VERTEX
  8
0
 10
173.281
 20
86.114
 30
0.0
 40
0.5
 41
0.5
  0
VERTEX
  8
0
 10
175.698
 20
84.7188
 30
0.0
 40
0.5
 41
0.5
  0
SEQEND
  8
0
  0
POLYLINE
8
0
 62
     0
 66
     1
 10
0
 20
0
 30
0.0
 40
0.5
 41
0.5
  0
VERTEX
  8
0
 10
173.577
 20
86.6279
 30
0.0
 40
0.5
 41
0.5
  0
VERTEX
  8
0
 10
175.994
 20
85.2327
 30
0.0
 40
0.5
 41
0.5
  0
SEQEND
  8
0
  0
POLYLINE
8
0
 62
     0
 66
     1
 10
0
 20
0
 30
0.0
 40
0.5
 41
0.5
  0
VERTEX
  8
0
 10
172.498
 20
82.6375
 30
0.0
 40
0.5
 41
0.5
  0
VERTEX
  8
0
 10
175.288
 20
82.6375
 30
0.0
 40
0.5
 41
0.5
  0
SEQEND
  8
0
  0
POLYLINE
8
0
 62
     0
 66
     1
 10
0
 20
0
 30
0.0
 40
0.5
 41
0.5
  0
VERTEX
  8
0
 10
172.498
 20
83.2312
 30
0.0
 40
0.5
 41
0.5
  0
VERTEX
  8
0
 10
175.288
 20
83.2312
 30
0.0
 40
0.5
 41
0.5
  0
SEQEND
  8
0
  0
POLYLINE
8
0
 62
     0
 66
     1
 10
0
 20
0
 30
0.0
 40
0.5
 41
0.5
  0
VERTEX
  8
0
 10
173.557
 20
79.2354
 30
0.0
 40
0.5
 41
0.5
  0
VERTEX
  8
0
 10
175.974
 20
80.6306
 30
0.0
 40
0.5
 41
0.5
  0
SEQEND
  8
0
  0
POLYLINE
8
0
 62
     0
 66
     1
 10
0
 20
0
 30
0.0
 40
0.5
 41
0.5
  0
VERTEX
  8
0
 10
173.261
 20
79.7493
 30
0.0
 40
0.5
 41
0.5
  0
VERTEX
  8
0
 10
175.677
 20
81.1445
 30
0.0
 40
0.5
 41
0.5
  0
SEQEND
  8
0
  0
POLYLINE
8
0
 62
     0
 66
     1
 10
0
 20
0
 30
0.0
 40
0.5
 41
0.5
  0
VERTEX
  8
0
 10
176.177
 20
76.8188
 30
0.0
 40
0.5
 41
0.5
  0
VERTEX
  8
0
 10
177.572
 20
79.2356
 30
0.0
 40
0.5
 41
0.5
  0
SEQEND
  8
0
  0
POLYLINE
8
0
 62
     0
 66
     1
 10
0
 20
0
 30
0.0
 40
0.5
 41
0.5
  0
VERTEX
  8
0
 10
175.663
 20
77.1157
 30
0.0
 40
0.5
 41
0.5
  0
VERTEX
  8
0
 10
177.058
 20
79.5322
 30
0.0
 40
0.5
 41
0.5
  0
SEQEND
  8
0
  0
POLYLINE
8
0
 62
     0
 66
     1
 10
0
 20
0
 30
0.0
 40
0.5
 41
0.5
  0
VERTEX
  8
0
 10
182.576
 20
89.01
 30
0.0
 40
0.5
 41
0.5
  0
VERTEX
  8
0
 10
181.18
 20
86.593
 30
0.0
 40
0.5
 41
0.5
  0
SEQEND
  8
0
  0
POLYLINE
8
0
 62
     0
 66
     1
 10
0
 20
0
 30
0.0
 40
0.5
 41
0.5
  0
VERTEX
  8
0
 10
183.09
 20
88.7131
 30
0.0
 40
0.5
 41
0.5
  0
VERTEX
  8
0
 10
181.695
 20
86.2964
 30
0.0
 40
0.5
 41
0.5
  0
SEQEND
  8
0
  0
POLYLINE
8
0
 62
     0
 66
     1
 10
0
 20
0
 30
0.0
 40
0.5
 41
0.5
  0
VERTEX
  8
0
 10
185.195
 20
86.5935
 30
0.0
 40
0.5
 41
0.5
  0
VERTEX
  8
0
 10
182.778
 20
85.1982
 30
0.0
 40
0.5
 41
0.5
  0
SEQEND
  8
0
  0
POLYLINE
8
0
 62
     0
 66
     1
 10
0
 20
0
 30
0.0
 40
0.5
 41
0.5
  0
VERTEX
  8
0
 10
185.492
 20
86.0793
 30
0.0
 40
0.5
 41
0.5
  0
VERTEX
  8
0
 10
183.075
 20
84.6841
 30
0.0
 40
0.5
 41
0.5
  0
SEQEND
  8
0
  0
POLYLINE
8
0
 62
     0
 66
     1
 10
0
 20
0
 30
0.0
 40
0.5
 41
0.5
  0
VERTEX
  8
0
 10
186.255
 20
83.1912
 30
0.0
 40
0.5
 41
0.5
  0
VERTEX
  8
0
 10
183.464
 20
83.1912
 30
0.0
 40
0.5
 41
0.5
  0
SEQEND
  8
0
  0
POLYLINE
8
0
 62
     0
 66
     1
 10
0
 20
0
 30
0.0
 40
0.5
 41
0.5
  0
VERTEX
  8
0
 10
186.255
 20
82.5977
 30
0.0
 40
0.5
 41
0.5
  0
VERTEX
  8
0
 10
183.464
 20
82.5977
 30
0.0
 40
0.5
 41
0.5
  0
SEQEND
  8
0
  0
POLYLINE
8
0
 62
     0
 66
     1
 10
0
 20
0
 30
0.0
 40
0.5
 41
0.5
  0
VERTEX
  8
0
 10
185.472
 20
79.7148
 30
0.0
 40
0.5
 41
0.5
  0
VERTEX
  8
0
 10
183.055
 20
81.1101
 30
0.0
 40
0.5
 41
0.5
  0
SEQEND
  8
0
  0
POLYLINE
8
0
 62
     0
 66
     1
 10
0
 20
0
 30
0.0
 40
0.5
 41
0.5
  0
VERTEX
  8
0
 10
185.175
 20
79.2009
 30
0.0
 40
0.5
 41
0.5
  0
VERTEX
  8
0
 10
182.758
 20
80.5962
 30
0.0
 40
0.5
 41
0.5
  0
SEQEND
  8
0
  0
POLYLINE
8
0
 62
     0
 66
     1
 10
0
 20
0
 30
0.0
 40
0.5
 41
0.5
  0
VERTEX
  8
0
 10
183.055
 20
77.0957
 30
0.0
 40
0.5
 41
0.5
  0
VERTEX
  8
0
 10
181.66
 20
79.5125
 30
0.0
 40
0.5
 41
0.5
  0
SEQEND
  8
0
  0
POLYLINE
8
0
 62
     0
 66
     1
 10
0
 20
0
 30
0.0
 40
0.5
 41
0.5
  0
VERTEX
  8
0
 10
182.542
 20
76.7988
 30
0.0
 40
0.5
 41
0.5
  0
VERTEX
  8
0
 10
181.146
 20
79.2158
 30
0.0
 40
0.5
 41
0.5
  0
SEQEND
  8
0
  0
POLYLINE
8
0
 62
     0
 66
     1
 10
0
 20
0
 30
0.0
 40
0.5
 41
0.5
  0
VERTEX
  8
0
 10
218.784
 20
89.793
 30
0.0
 40
0.5
 41
0.5
  0
VERTEX
  8
0
 10
218.784
 20
87.0024
 30
0.0
 40
0.5
 41
0.5
  0
SEQEND
  8
0
  0
POLYLINE
8
0
 62
     0
 66
     1
 10
0
 20
0
 30
0.0
 40
0.5
 41
0.5
  0
VERTEX
  8
0
 10
219.378
 20
89.793
 30
0.0
 40
0.5
 41
0.5
  0
VERTEX
  8
0
 10
219.378
 20
87.0024
 30
0.0
 40
0.5
 41
0.5
  0
SEQEND
  8
0
  0
POLYLINE
8
0
 62
     0
 66
     1
 10
0
 20
0
 30
0.0
 40
0.5
 41
0.5
  0
VERTEX
  8
0
 10
215.382
 20
88.7332
 30
0.0
 40
0.5
 41
0.5
  0
VERTEX
  8
0
 10
216.778
 20
86.3164
 30
0.0
 40
0.5
 41
0.5
  0
SEQEND
  8
0
  0
POLYLINE
8
0
 62
     0
 66
     1
 10
0
 20
0
 30
0.0
 40
0.5
 41
0.5
  0
VERTEX
  8
0
 10
215.896
 20
89.0298
 30
0.0
 40
0.5
 41
0.5
  0
VERTEX
  8
0
 10
217.292
 20
86.613
 30
0.0
 40
0.5
 41
0.5
  0
SEQEND
  8
0
  0
POLYLINE
8
0
 62
     0
 66
     1
 10
0
 20
0
 30
0.0
 40
0.5
 41
0.5
  0
VERTEX
  8
0
 10
212.966
 20
86.114
 30
0.0
 40
0.5
 41
0.5
  0
VERTEX
  8
0
 10
215.383
 20
84.7188
 30
0.0
 40
0.5
 41
0.5
  0
SEQEND
  8
0
  0
POLYLINE
8
0
 62
     0
 66
     1
 10
0
 20
0
 30
0.0
 40
0.5
 41
0.5
  0
VERTEX
  8
0
 10
213.262
 20
86.6279
 30
0.0
 40
0.5
 41
0.5
  0
VERTEX
  8
0
 10
215.679
 20
85.2327
 30
0.0
 40
0.5
 41
0.5
  0
SEQEND
  8
0
  0
POLYLINE
8
0
 62
     0
 66
     1
 10
0
 20
0
 30
0.0
 40
0.5
 41
0.5
  0
VERTEX
  8
0
 10
212.183
 20
82.6375
 30
0.0
 40
0.5
 41
0.5
  0
VERTEX
  8
0
 10
214.973
 20
82.6375
 30
0.0
 40
0.5
 41
0.5
  0
SEQEND
  8
0
  0
POLYLINE
8
0
 62
     0
 66
     1
 10
0
 20
0
 30
0.0
 40
0.5
 41
0.5
  0
VERTEX
  8
0
 10
212.183
 20
83.2312
 30
0.0
 40
0.5
 41
0.5
  0
VERTEX
  8
0
 10
214.973
 20
83.2312
 30
0.0
 40
0.5
 41
0.5
  0
SEQEND
  8
0
  0
POLYLINE
8
0
 62
     0
 66
     1
 10
0
 20
0
 30
0.0
 40
0.5
 41
0.5
  0
VERTEX
  8
0
 10
213.242
 20
79.2354
 30
0.0
 40
0.5
 41
0.5
  0
VERTEX
  8
0
 10
215.659
 20
80.6306
 30
0.0
 40
0.5
 41
0.5
  0
SEQEND
  8
0
  0
POLYLINE
8
0
 62
     0
 66
     1
 10
0
 20
0
 30
0.0
 40
0.5
 41
0.5
  0
VERTEX
  8
0
 10
212.946
 20
79.7493
 30
0.0
 40
0.5
 41
0.5
  0
VERTEX
  8
0
 10
215.363
 20
81.1445
 30
0.0
 40
0.5
 41
0.5
  0
SEQEND
  8
0
  0
POLYLINE
8
0
 62
     0
 66
     1
 10
0
 20
0
 30
0.0
 40
0.5
 41
0.5
  0
VERTEX
  8
0
 10
215.862
 20
76.8188
 30
0.0
 40
0.5
 41
0.5
  0
VERTEX
  8
0
 10
217.257
 20
79.2356
 30
0.0
 40
0.5
 41
0.5
  0
SEQEND
  8
0
  0
POLYLINE
8
0
 62
     0
 66
     1
 10
0
 20
0
 30
0.0
 40
0.5
 41
0.5
  0
VERTEX
  8
0
 10
215.348
 20
77.1157
 30
0.0
 40
0.5
 41
0.5
  0
VERTEX
  8
0
 10
216.743
 20
79.5322
 30
0.0
 40
0.5
 41
0.5
  0
SEQEND
  8
0
  0
POLYLINE
8
0
 62
     0
 66
     1
 10
0
 20
0
 30
0.0
 40
0.5
 41
0.5
  0
VERTEX
  8
0
 10
222.261
 20
89.01
 30
0.0
 40
0.5
 41
0.5
  0
VERTEX
  8
0
 10
220.865
 20
86.593
 30
0.0
 40
0.5
 41
0.5
  0
SEQEND
  8
0
  0
POLYLINE
8
0
 62
     0
 66
     1
 10
0
 20
0
 30
0.0
 40
0.5
 41
0.5
  0
VERTEX
  8
0
 10
222.775
 20
88.7131
 30
0.0
 40
0.5
 41
0.5
  0
VERTEX
  8
0
 10
221.379
 20
86.2964
 30
0.0
 40
0.5
 41
0.5
  0
SEQEND
  8
0
  0
POLYLINE
8
0
 62
     0
 66
     1
 10
0
 20
0
 30
0.0
 40
0.5
 41
0.5
  0
VERTEX
  8
0
 10
224.88
 20
86.5935
 30
0.0
 40
0.5
 41
0.5
  0
VERTEX
  8
0
 10
222.463
 20
85.1982
 30
0.0
 40
0.5
 41
0.5
  0
SEQEND
  8
0
  0
POLYLINE
8
0
 62
     0
 66
     1
 10
0
 20
0
 30
0.0
 40
0.5
 41
0.5
  0
VERTEX
  8
0
 10
225.177
 20
86.0793
 30
0.0
 40
0.5
 41
0.5
  0
VERTEX
  8
0
 10
222.76
 20
84.6841
 30
0.0
 40
0.5
 41
0.5
  0
SEQEND
  8
0
  0
POLYLINE
8
0
 62
     0
 66
     1
 10
0
 20
0
 30
0.0
 40
0.5
 41
0.5
  0
VERTEX
  8
0
 10
225.94
 20
83.1912
 30
0.0
 40
0.5
 41
0.5
  0
VERTEX
  8
0
 10
223.149
 20
83.1912
 30
0.0
 40
0.5
 41
0.5
  0
SEQEND
  8
0
  0
POLYLINE
8
0
 62
     0
 66
     1
 10
0
 20
0
 30
0.0
 40
0.5
 41
0.5
  0
VERTEX
  8
0
 10
225.94
 20
82.5977
 30
0.0
 40
0.5
 41
0.5
  0
VERTEX
  8
0
 10
223.149
 20
82.5977
 30
0.0
 40
0.5
 41
0.5
  0
SEQEND
  8
0
  0
POLYLINE
8
0
 62
     0
 66
     1
 10
0
 20
0
 30
0.0
 40
0.5
 41
0.5
  0
VERTEX
  8
0
 10
225.157
 20
79.7148
 30
0.0
 40
0.5
 41
0.5
  0
VERTEX
  8
0
 10
222.74
 20
81.1101
 30
0.0
 40
0.5
 41
0.5
  0
SEQEND
  8
0
  0
POLYLINE
8
0
 62
     0
 66
     1
 10
0
 20
0
 30
0.0
 40
0.5
 41
0.5
  0
VERTEX
  8
0
 10
224.86
 20
79.2009
 30
0.0
 40
0.5
 41
0.5
  0
VERTEX
  8
0
 10
222.443
 20
80.5962
 30
0.0
 40
0.5
 41
0.5
  0
SEQEND
  8
0
  0
POLYLINE
8
0
 62
     0
 66
     1
 10
0
 20
0
 30
0.0
 40
0.5
 41
0.5
  0
VERTEX
  8
0
 10
222.74
 20
77.0957
 30
0.0
 40
0.5
 41
0.5
  0
VERTEX
  8
0
 10
221.345
 20
79.5125
 30
0.0
 40
0.5
 41
0.5
  0
SEQEND
  8
0
  0
POLYLINE
8
0
 62
     0
 66
     1
 10
0
 20
0
 30
0.0
 40
0.5
 41
0.5
  0
VERTEX
  8
0
 10
222.226
 20
76.7988
 30
0.0
 40
0.5
 41
0.5
  0
VERTEX
  8
0
 10
220.831
 20
79.2158
 30
0.0
 40
0.5
 41
0.5
  0
SEQEND
  8
0
  0
POLYLINE
8
0
 62
     0
 66
     1
 10
0
 20
0
 30
0.0
 40
0.5
 41
0.5
  0
VERTEX
  8
0
 10
258.469
 20
89.793
 30
0.0
 40
0.5
 41
0.5
  0
VERTEX
  8
0
 10
258.469
 20
87.0024
 30
0.0
 40
0.5
 41
0.5
  0
SEQEND
  8
0
  0
POLYLINE
8
0
 62
     0
 66
     1
 10
0
 20
0
 30
0.0
 40
0.5
 41
0.5
  0
VERTEX
  8
0
 10
259.063
 20
89.793
 30
0.0
 40
0.5
 41
0.5
  0
VERTEX
  8
0
 10
259.063
 20
87.0024
 30
0.0
 40
0.5
 41
0.5
  0
SEQEND
  8
0
  0
POLYLINE
8
0
 62
     0
 66
     1
 10
0
 20
0
 30
0.0
 40
0.5
 41
0.5
  0
VERTEX
  8
0
 10
255.067
 20
88.7332
 30
0.0
 40
0.5
 41
0.5
  0
VERTEX
  8
0
 10
256.462
 20
86.3164
 30
0.0
 40
0.5
 41
0.5
  0
SEQEND
  8
0
  0
POLYLINE
8
0
 62
     0
 66
     1
 10
0
 20
0
 30
0.0
 40
0.5
 41
0.5
  0
VERTEX
  8
0
 10
255.581
 20
89.0298
 30
0.0
 40
0.5
 41
0.5
  0
VERTEX
  8
0
 10
256.977
 20
86.613
 30
0.0
 40
0.5
 41
0.5
  0
SEQEND
  8
0
  0
POLYLINE
8
0
 62
     0
 66
     1
 10
0
 20
0
 30
0.0
 40
0.5
 41
0.5
  0
VERTEX
  8
0
 10
252.651
 20
86.114
 30
0.0
 40
0.5
 41
0.5
  0
VERTEX
  8
0
 10
255.067
 20
84.7188
 30
0.0
 40
0.5
 41
0.5
  0
SEQEND
  8
0
  0
POLYLINE
8
0
 62
     0
 66
     1
 10
0
 20
0
 30
0.0
 40
0.5
 41
0.5
  0
VERTEX
  8
0
 10
252.948
 20
86.6279
 30
0.0
 40
0.5
 41
0.5
  0
VERTEX
  8
0
 10
255.364
 20
85.2327
 30
0.0
 40
0.5
 41
0.5
  0
SEQEND
  8
0
  0
POLYLINE
8
0
 62
     0
 66
     1
 10
0
 20
0
 30
0.0
 40
0.5
 41
0.5
  0
VERTEX
  8
0
 10
251.868
 20
82.6375
 30
0.0
 40
0.5
 41
0.5
  0
VERTEX
  8
0
 10
254.658
 20
82.6375
 30
0.0
 40
0.5
 41
0.5
  0
SEQEND
  8
0
  0
POLYLINE
8
0
 62
     0
 66
     1
 10
0
 20
0
 30
0.0
 40
0.5
 41
0.5
  0
VERTEX
  8
0
 10
251.868
 20
83.2312
 30
0.0
 40
0.5
 41
0.5
  0
VERTEX
  8
0
 10
254.658
 20
83.2312
 30
0.0
 40
0.5
 41
0.5
  0
SEQEND
  8
0
  0
POLYLINE
8
0
 62
     0
 66
     1
 10
0
 20
0
 30
0.0
 40
0.5
 41
0.5
  0
VERTEX
  8
0
 10
252.927
 20
79.2354
 30
0.0
 40
0.5
 41
0.5
  0
VERTEX
  8
0
 10
255.344
 20
80.6306
 30
0.0
 40
0.5
 41
0.5
  0
SEQEND
  8
0
  0
POLYLINE
8
0
 62
     0
 66
     1
 10
0
 20
0
 30
0.0
 40
0.5
 41
0.5
  0
VERTEX
  8
0
 10
252.631
 20
79.7493
 30
0.0
 40
0.5
 41
0.5
  0
VERTEX
  8
0
 10
255.048
 20
81.1445
 30
0.0
 40
0.5
 41
0.5
  0
SEQEND
  8
0
  0
POLYLINE
8
0
 62
     0
 66
     1
 10
0
 20
0
 30
0.0
 40
0.5
 41
0.5
  0
VERTEX
  8
0
 10
255.547
 20
76.8188
 30
0.0
 40
0.5
 41
0.5
  0
VERTEX
  8
0
 10
256.942
 20
79.2356
 30
0.0
 40
0.5
 41
0.5
  0
SEQEND
  8
0
  0
POLYLINE
8
0
 62
     0
 66
     1
 10
0
 20
0
 30
0.0
 40
0.5
 41
0.5
  0
VERTEX
  8
0
 10
255.033
 20
77.1157
 30
0.0
 40
0.5
 41
0.5
  0
VERTEX
  8
0
 10
256.428
 20
79.5322
 30
0.0
 40
0.5
 41
0.5
  0
SEQEND
  8
0
  0
POLYLINE
8
0
 62
     0
 66
     1
 10
0
 20
0
 30
0.0
 40
0.5
 41
0.5
  0
VERTEX
  8
0
 10
261.946
 20
89.01
 30
0.0
 40
0.5
 41
0.5
  0
VERTEX
  8
0
 10
260.55
 20
86.593
 30
0.0
 40
0.5
 41
0.5
  0
SEQEND
  8
0
  0
POLYLINE
8
0
 62
     0
 66
     1
 10
0
 20
0
 30
0.0
 40
0.5
 41
0.5
  0
VERTEX
  8
0
 10
262.46
 20
88.7131
 30
0.0
 40
0.5
 41
0.5
  0
VERTEX
  8
0
 10
261.064
 20
86.2964
 30
0.0
 40
0.5
 41
0.5
  0
SEQEND
  8
0
  0
POLYLINE
8
0
 62
     0
 66
     1
 10
0
 20
0
 30
0.0
 40
0.5
 41
0.5
  0
VERTEX
  8
0
 10
264.565
 20
86.5935
 30
0.0
 40
0.5
 41
0.5
  0
VERTEX
  8
0
 10
262.148
 20
85.1982
 30
0.0
 40
0.5
 41
0.5
  0
SEQEND
  8
0
  0
POLYLINE
8
0
 62
     0
 66
     1
 10
0
 20
0
 30
0.0
 40
0.5
 41
0.5
  0
VERTEX
  8
0
 10
264.862
 20
86.0793
 30
0.0
 40
0.5
 41
0.5
  0
VERTEX
  8
0
 10
262.445
 20
84.6841
 30
0.0
 40
0.5
 41
0.5
  0
SEQEND
  8
0
  0
POLYLINE
8
0
 62
     0
 66
     1
 10
0
 20
0
 30
0.0
 40
0.5
 41
0.5
  0
VERTEX
  8
0
 10
265.625
 20
83.1912
 30
0.0
 40
0.5
 41
0.5
  0
VERTEX
  8
0
 10
262.834
 20
83.1912
 30
0.0
 40
0.5
 41
0.5
  0
SEQEND
  8
0
  0
POLYLINE
8
0
 62
     0
 66
     1
 10
0
 20
0
 30
0.0
 40
0.5
 41
0.5
  0
VERTEX
  8
0
 10
265.625
 20
82.5977
 30
0.0
 40
0.5
 41
0.5
  0
VERTEX
  8
0
 10
262.834
 20
82.5977
 30
0.0
 40
0.5
 41
0.5
  0
SEQEND
  8
0
  0
POLYLINE
8
0
 62
     0
 66
     1
 10
0
 20
0
 30
0.0
 40
0.5
 41
0.5
  0
VERTEX
  8
0
 10
264.842
 20
79.7148
 30
0.0
 40
0.5
 41
0.5
  0
VERTEX
  8
0
 10
262.425
 20
81.1101
 30
0.0
 40
0.5
 41
0.5
  0
SEQEND
  8
0
  0
POLYLINE
8
0
 62
     0
 66
     1
 10
0
 20
0
 30
0.0
 40
0.5
 41
0.5
  0
VERTEX
  8
0
 10
264.545
 20
79.2009
 30
0.0
 40
0.5
 41
0.5
  0
VERTEX
  8
0
 10
262.128
 20
80.5962
 30
0.0
 40
0.5
 41
0.5
  0
SEQEND
  8
0
  0
POLYLINE
8
0
 62
     0
 66
     1
 10
0
 20
0
 30
0.0
 40
0.5
 41
0.5
  0
VERTEX
  8
0
 10
262.425
 20
77.0957
 30
0.0
 40
0.5
 41
0.5
  0
VERTEX
  8
0
 10
261.03
 20
79.5125
 30
0.0
 40
0.5
 41
0.5
  0
SEQEND
  8
0
  0
POLYLINE
8
0
 62
     0
 66
     1
 10
0
 20
0
 30
0.0
 40
0.5
 41
0.5
  0
VERTEX
  8
0
 10
261.911
 20
76.7988
 30
0.0
 40
0.5
 41
0.5
  0
VERTEX
  8
0
 10
260.516
 20
79.2158
 30
0.0
 40
0.5
 41
0.5
  0
SEQEND
  8
0
  0
POLYLINE
8
0
 62
     0
 66
     1
 10
0
 20
0
 30
0.0
 40
0.5
 41
0.5
  0
VERTEX
  8
0
 10
298.154
 20
89.793
 30
0.0
 40
0.5
 41
0.5
  0
VERTEX
  8
0
 10
298.154
 20
87.0024
 30
0.0
 40
0.5
 41
0.5
  0
SEQEND
  8
0
  0
POLYLINE
8
0
 62
     0
 66
     1
 10
0
 20
0
 30
0.0
 40
0.5
 41
0.5
  0
VERTEX
  8
0
 10
298.748
 20
89.793
 30
0.0
 40
0.5
 41
0.5
  0
VERTEX
  8
0
 10
298.748
 20
87.0024
 30
0.0
 40
0.5
 41
0.5
  0
SEQEND
  8
0
  0
POLYLINE
8
0
 62
     0
 66
     1
 10
0
 20
0
 30
0.0
 40
0.5
 41
0.5
  0
VERTEX
  8
0
 10
294.752
 20
88.7332
 30
0.0
 40
0.5
 41
0.5
  0
VERTEX
  8
0
 10
296.147
 20
86.3164
 30
0.0
 40
0.5
 41
0.5
  0
SEQEND
  8
0
  0
POLYLINE
8
0
 62
     0
 66
     1
 10
0
 20
0
 30
0.0
 40
0.5
 41
0.5
  0
VERTEX
  8
0
 10
295.266
 20
89.0298
 30
0.0
 40
0.5
 41
0.5
  0
VERTEX
  8
0
 10
296.662
 20
86.613
 30
0.0
 40
0.5
 41
0.5
  0
SEQEND
  8
0
  0
POLYLINE
8
0
 62
     0
 66
     1
 10
0
 20
0
 30
0.0
 40
0.5
 41
0.5
  0
VERTEX
  8
0
 10
292.336
 20
86.114
 30
0.0
 40
0.5
 41
0.5
  0
VERTEX
  8
0
 10
294.753
 20
84.7188
 30
0.0
 40
0.5
 41
0.5
  0
SEQEND
  8
0
  0
POLYLINE
8
0
 62
     0
 66
     1
 10
0
 20
0
 30
0.0
 40
0.5
 41
0.5
  0
VERTEX
  8
0
 10
292.633
 20
86.6279
 30
0.0
 40
0.5
 41
0.5
  0
VERTEX
  8
0
 10
295.049
 20
85.2327
 30
0.0
 40
0.5
 41
0.5
  0
SEQEND
  8
0
  0
POLYLINE
8
0
 62
     0
 66
     1
 10
0
 20
0
 30
0.0
 40
0.5
 41
0.5
  0
VERTEX
  8
0
 10
291.552
 20
82.6375
 30
0.0
 40
0.5
 41
0.5
  0
VERTEX
  8
0
 10
294.343
 20
82.6375
 30
0.0
 40
0.5
 41
0.5
  0
SEQEND
  8
0
  0
POLYLINE
8
0
 62
     0
 66
     1
 10
0
 20
0
 30
0.0
 40
0.5
 41
0.5
  0
VERTEX
  8
0
 10
291.552
 20
83.2312
 30
0.0
 40
0.5
 41
0.5
  0
VERTEX
  8
0
 10
294.343
 20
83.2312
 30
0.0
 40
0.5
 41
0.5
  0
SEQEND
  8
0
  0
POLYLINE
8
0
 62
     0
 66
     1
 10
0
 20
0
 30
0.0
 40
0.5
 41
0.5
  0
VERTEX
  8
0
 10
292.613
 20
79.2354
 30
0.0
 40
0.5
 41
0.5
  0
VERTEX
  8
0
 10
295.029
 20
80.6306
 30
0.0
 40
0.5
 41
0.5
  0
SEQEND
  8
0
  0
POLYLINE
8
0
 62
     0
 66
     1
 10
0
 20
0
 30
0.0
 40
0.5
 41
0.5
  0
VERTEX
  8
0
 10
292.316
 20
79.7493
 30
0.0
 40
0.5
 41
0.5
  0
VERTEX
  8
0
 10
294.733
 20
81.1445
 30
0.0
 40
0.5
 41
0.5
  0
SEQEND
  8
0
  0
POLYLINE
8
0
 62
     0
 66
     1
 10
0
 20
0
 30
0.0
 40
0.5
 41
0.5
  0
VERTEX
  8
0
 10
295.232
 20
76.8188
 30
0.0
 40
0.5
 41
0.5
  0
VERTEX
  8
0
 10
296.627
 20
79.2356
 30
0.0
 40
0.5
 41
0.5
  0
SEQEND
  8
0
  0
POLYLINE
8
0
 62
     0
 66
     1
 10
0
 20
0
 30
0.0
 40
0.5
 41
0.5
  0
VERTEX
  8
0
 10
294.718
 20
77.1157
 30
0.0
 40
0.5
 41
0.5
  0
VERTEX
  8
0
 10
296.113
 20
79.5322
 30
0.0
 40
0.5
 41
0.5
  0
SEQEND
  8
0
  0
POLYLINE
8
0
 62
     0
 66
     1
 10
0
 20
0
 30
0.0
 40
0.5
 41
0.5
  0
VERTEX
  8
0
 10
301.631
 20
89.01
 30
0.0
 40
0.5
 41
0.5
  0
VERTEX
  8
0
 10
300.236
 20
86.593
 30
0.0
 40
0.5
 41
0.5
  0
SEQEND
  8
0
  0
POLYLINE
8
0
 62
     0
 66
     1
 10
0
 20
0
 30
0.0
 40
0.5
 41
0.5
  0
VERTEX
  8
0
 10
302.145
 20
88.7131
 30
0.0
 40
0.5
 41
0.5
  0
VERTEX
  8
0
 10
300.75
 20
86.2964
 30
0.0
 40
0.5
 41
0.5
  0
SEQEND
  8
0
  0
POLYLINE
8
0
 62
     0
 66
     1
 10
0
 20
0
 30
0.0
 40
0.5
 41
0.5
  0
VERTEX
  8
0
 10
304.25
 20
86.5935
 30
0.0
 40
0.5
 41
0.5
  0
VERTEX
  8
0
 10
301.833
 20
85.1982
 30
0.0
 40
0.5
 41
0.5
  0
SEQEND
  8
0
  0
POLYLINE
8
0
 62
     0
 66
     1
 10
0
 20
0
 30
0.0
 40
0.5
 41
0.5
  0
VERTEX
  8
0
 10
304.547
 20
86.0793
 30
0.0
 40
0.5
 41
0.5
  0
VERTEX
  8
0
 10
302.13
 20
84.6841
 30
0.0
 40
0.5
 41
0.5
  0
SEQEND
  8
0
  0
POLYLINE
8
0
 62
     0
 66
     1
 10
0
 20
0
 30
0.0
 40
0.5
 41
0.5
  0
VERTEX
  8
0
 10
305.31
 20
83.1912
 30
0.0
 40
0.5
 41
0.5
  0
VERTEX
  8
0
 10
302.519
 20
83.1912
 30
0.0
 40
0.5
 41
0.5
  0
SEQEND
  8
0
  0
POLYLINE
8
0
 62
     0
 66
     1
 10
0
 20
0
 30
0.0
 40
0.5
 41
0.5
  0
VERTEX
  8
0
 10
305.31
 20
82.5977
 30
0.0
 40
0.5
 41
0.5
  0
VERTEX
  8
0
 10
302.519
 20
82.5977
 30
0.0
 40
0.5
 41
0.5
  0
SEQEND
  8
0
  0
POLYLINE
8
0
 62
     0
 66
     1
 10
0
 20
0
 30
0.0
 40
0.5
 41
0.5
  0
VERTEX
  8
0
 10
304.527
 20
79.7148
 30
0.0
 40
0.5
 41
0.5
  0
VERTEX
  8
0
 10
302.11
 20
81.1101
 30
0.0
 40
0.5
 41
0.5
  0
SEQEND
  8
0
  0
POLYLINE
8
0
 62
     0
 66
     1
 10
0
 20
0
 30
0.0
 40
0.5
 41
0.5
  0
VERTEX
  8
0
 10
304.23
 20
79.2009
 30
0.0
 40
0.5
 41
0.5
  0
VERTEX
  8
0
 10
301.813
 20
80.5962
 30
0.0
 40
0.5
 41
0.5
  0
SEQEND
  8
0
  0
POLYLINE
8
0
 62
     0
 66
     1
 10
0
 20
0
 30
0.0
 40
0.5
 41
0.5
  0
VERTEX
  8
0
 10
302.111
 20
77.0957
 30
0.0
 40
0.5
 41
0.5
  0
VERTEX
  8
0
 10
300.715
 20
79.5125
 30
0.0
 40
0.5
 41
0.5
  0
SEQEND
  8
0
  0
POLYLINE
8
0
 62
     0
 66
     1
 10
0
 20
0
 30
0.0
 40
0.5
 41
0.5
  0
VERTEX
  8
0
 10
301.596
 20
76.7988
 30
0.0
 40
0.5
 41
0.5
  0
VERTEX
  8
0
 10
300.201
 20
79.2158
 30
0.0
 40
0.5
 41
0.5
  0
SEQEND
  8
0
  0
POLYLINE
8
0
 62
     0
 66
     1
 10
0
 20
0
 30
0.0
 70
     1
 40
0.5
 41
0.5
  0
VERTEX
  8
0
 10
63.8696
 20
124.727
 30
0.0
 40
0.5
 41
0.5
  0
VERTEX
  8
0
 10
365.76
 20
124.727
 30
0.0
 40
0.5
 41
0.5
  0
VERTEX
  8
0
 10
365.76
 20
62.365
 30
0.0
 40
0.5
 41
0.5
  0
VERTEX
  8
0
 10
63.8696
 20
62.365
 30
0.0
 40
0.5
 41
0.5
  0
VERTEX
  8
0
 10
63.8696
 20
124.727
 30
0.0
 40
0.5
 41
0.5
  0
SEQEND
  8
0
  0
POLYLINE
8
0
 62
     0
 66
     1
 10
0
 20
0
 30
0.0
 70
     1
 40
0.5
 41
0.5
  0
VERTEX
  8
0
 10
707.337
 20
62.3657
 30
0.0
 40
0.5
 41
0.5
  0
VERTEX
  8
0
 10
367.179
 20
62.3657
 30
0.0
 40
0.5
 41
0.5
  0
VERTEX
  8
0
 10
367.179
 20
124.728
 30
0.0
 40
0.5
 41
0.5
  0
VERTEX
  8
0
 10
707.337
 20
124.728
 30
0.0
 40
0.5
 41
0.5
  0
VERTEX
  8
0
 10
707.337
 20
62.3657
 30
0.0
 40
0.5
 41
0.5
  0
SEQEND
  8
0
  0
POLYLINE
8
0
 62
     0
 66
     1
 10
0
 20
0
 30
0.0
 70
     1
 40
0.5
 41
0.5
  0
VERTEX
  8
0
 10
692.794
 20
66.1216
 30
0.0
 40
0.5
 41
0.5
  0
VERTEX
  8
0
 10
691.003
 20
66.4836
 30
0.0
 40
0.5
 41
0.5
  0
VERTEX
  8
0
 10
689.544
 20
67.4709
 30
0.0
 40
0.5
 41
0.5
  0
VERTEX
  8
0
 10
688.562
 20
68.9351
 30
0.0
 40
0.5
 41
0.5
  0
VERTEX
  8
0
 10
688.203
 20
70.728
 30
0.0
 40
0.5
 41
0.5
  0
VERTEX
  8
0
 10
688.565
 20
72.521
 30
0.0
 40
0.5
 41
0.5
  0
VERTEX
  8
0
 10
689.552
 20
73.9851
 30
0.0
 40
0.5
 41
0.5
  0
VERTEX
  8
0
 10
691.016
 20
74.9724
 30
0.0
 40
0.5
 41
0.5
  0
VERTEX
  8
0
 10
692.809
 20
75.3342
 30
0.0
 40
0.5
 41
0.5
  0
VERTEX
  8
0
 10
699.179
 20
75.3342
 30
0.0
 40
0.5
 41
0.5
  0
VERTEX
  8
0
 10
700.973
 20
74.9724
 30
0.0
 40
0.5
 41
0.5
  0
VERTEX
  8
0
 10
702.44
 20
73.9851
 30
0.0
 40
0.5
 41
0.5
  0
VERTEX
  8
0
 10
703.43
 20
72.521
 30
0.0
 40
0.5
 41
0.5
  0
VERTEX
  8
0
 10
703.793
 20
70.728
 30
0.0
 40
0.5
 41
0.5
  0
VERTEX
  8
0
 10
703.431
 20
68.9351
 30
0.0
 40
0.5
 41
0.5
  0
VERTEX
  8
0
 10
702.444
 20
67.4709
 30
0.0
 40
0.5
 41
0.5
  0
VERTEX
  8
0
 10
700.98
 20
66.4836
 30
0.0
 40
0.5
 41
0.5
  0
VERTEX
  8
0
 10
699.187
 20
66.1216
 30
0.0
 40
0.5
 41
0.5
  0
VERTEX
  8
0
 10
692.794
 20
66.1216
 30
0.0
 40
0.5
 41
0.5
  0
SEQEND
  8
0
  0
POLYLINE
8
0
 62
     0
 66
     1
 10
0
 20
0
 30
0.0
 70
     1
 40
0.5
 41
0.5
  0
VERTEX
  8
0
 10
692.794
 20
111.76
 30
0.0
 40
0.5
 41
0.5
  0
VERTEX
  8
0
 10
691.003
 20
112.122
 30
0.0
 40
0.5
 41
0.5
  0
VERTEX
  8
0
 10
689.544
 20
113.109
 30
0.0
 40
0.5
 41
0.5
  0
VERTEX
  8
0
 10
688.562
 20
114.573
 30
0.0
 40
0.5
 41
0.5
  0
VERTEX
  8
0
 10
688.203
 20
116.366
 30
0.0
 40
0.5
 41
0.5
  0
VERTEX
  8
0
 10
688.565
 20
118.159
 30
0.0
 40
0.5
 41
0.5
  0
VERTEX
  8
0
 10
689.552
 20
119.623
 30
0.0
 40
0.5
 41
0.5
  0
VERTEX
  8
0
 10
691.016
 20
120.61
 30
0.0
 40
0.5
 41
0.5
  0
VERTEX
  8
0
 10
692.809
 20
120.972
 30
0.0
 40
0.5
 41
0.5
  0
VERTEX
  8
0
 10
699.179
 20
120.972
 30
0.0
 40
0.5
 41
0.5
  0
VERTEX
  8
0
 10
700.973
 20
120.61
 30
0.0
 40
0.5
 41
0.5
  0
VERTEX
  8
0
 10
702.44
 20
119.623
 30
0.0
 40
0.5
 41
0.5
  0
VERTEX
  8
0
 10
703.43
 20
118.159
 30
0.0
 40
0.5
 41
0.5
  0
VERTEX
  8
0
 10
703.793
 20
116.366
 30
0.0
 40
0.5
 41
0.5
  0
VERTEX
  8
0
 10
703.431
 20
114.573
 30
0.0
 40
0.5
 41
0.5
  0
VERTEX
  8
0
 10
702.444
 20
113.109
 30
0.0
 40
0.5
 41
0.5
  0
VERTEX
  8
0
 10
700.98
 20
112.122
 30
0.0
 40
0.5
 41
0.5
  0
VERTEX
  8
0
 10
699.187
 20
111.76
 30
0.0
 40
0.5
 41
0.5
  0
VERTEX
  8
0
 10
692.794
 20
111.76
 30
0.0
 40
0.5
 41
0.5
  0
SEQEND
  8
0
  0
POLYLINE
8
0
 62
     0
 66
     1
 10
0
 20
0
 30
0.0
 70
     1
 40
0.5
 41
0.5
  0
VERTEX
  8
0
 10
27.0217
 20
124.726
 30
0.0
 40
0.5
 41
0.5
  0
VERTEX
  8
0
 10
62.4548
 20
124.726
 30
0.0
 40
0.5
 41
0.5
  0
VERTEX
  8
0
 10
62.4548
 20
62.3635
 30
0.0
 40
0.5
 41
0.5
  0
VERTEX
  8
0
 10
27.0217
 20
62.3635
 30
0.0
 40
0.5
 41
0.5
  0
VERTEX
  8
0
 10
27.0217
 20
124.726
 30
0.0
 40
0.5
 41
0.5
  0
SEQEND
  8
0
  0
POLYLINE
8
0
 62
     0
 66
     1
 10
0
 20
0
 30
0.0
 70
     1
 40
0.5
 41
0.5
  0
VERTEX
  8
0
 10
41.5649
 20
120.97
 30
0.0
 40
0.5
 41
0.5
  0
VERTEX
  8
0
 10
43.3552
 20
120.608
 30
0.0
 40
0.5
 41
0.5
  0
VERTEX
  8
0
 10
44.8142
 20
119.621
 30
0.0
 40
0.5
 41
0.5
  0
VERTEX
  8
0
 10
45.7959
 20
118.156
 30
0.0
 40
0.5
 41
0.5
  0
VERTEX
  8
0
 10
46.1555
 20
116.364
 30
0.0
 40
0.5
 41
0.5
  0
VERTEX
  8
0
 10
45.7935
 20
114.571
 30
0.0
 40
0.5
 41
0.5
  0
VERTEX
  8
0
 10
44.8064
 20
113.106
 30
0.0
 40
0.5
 41
0.5
  0
VERTEX
  8
0
 10
43.342
 20
112.119
 30
0.0
 40
0.5
 41
0.5
  0
VERTEX
  8
0
 10
41.5493
 20
111.757
 30
0.0
 40
0.5
 41
0.5
  0
VERTEX
  8
0
 10
35.1792
 20
111.757
 30
0.0
 40
0.5
 41
0.5
  0
VERTEX
  8
0
 10
33.3848
 20
112.119
 30
0.0
 40
0.5
 41
0.5
  0
VERTEX
  8
0
 10
31.918
 20
113.106
 30
0.0
 40
0.5
 41
0.5
  0
VERTEX
  8
0
 10
30.928
 20
114.571
 30
0.0
 40
0.5
 41
0.5
  0
VERTEX
  8
0
 10
30.5649
 20
116.364
 30
0.0
 40
0.5
 41
0.5
  0
VERTEX
  8
0
 10
30.9268
 20
118.156
 30
0.0
 40
0.5
 41
0.5
  0
VERTEX
  8
0
 10
31.9141
 20
119.621
 30
0.0
 40
0.5
 41
0.5
  0
VERTEX
  8
0
 10
33.3782
 20
120.608
 30
0.0
 40
0.5
 41
0.5
  0
VERTEX
  8
0
 10
35.1714
 20
120.97
 30
0.0
 40
0.5
 41
0.5
  0
VERTEX
  8
0
 10
41.5649
 20
120.97
 30
0.0
 40
0.5
 41
0.5
  0
SEQEND
  8
0
  0
POLYLINE
8
0
 62
     0
 66
     1
 10
0
 20
0
 30
0.0
 70
     1
 40
0.5
 41
0.5
  0
VERTEX
  8
0
 10
41.5649
 20
75.332
 30
0.0
 40
0.5
 41
0.5
  0
VERTEX
  8
0
 10
43.3552
 20
74.9702
 30
0.0
 40
0.5
 41
0.5
  0
VERTEX
  8
0
 10
44.8142
 20
73.9829
 30
0.0
 40
0.5
 41
0.5
  0
VERTEX
  8
0
 10
45.7959
 20
72.5188
 30
0.0
 40
0.5
 41
0.5
  0
VERTEX
  8
0
 10
46.1555
 20
70.7256
 30
0.0
 40
0.5
 41
0.5
  0
VERTEX
  8
0
 10
45.7935
 20
68.9329
 30
0.0
 40
0.5
 41
0.5
  0
VERTEX
  8
0
 10
44.8064
 20
67.4685
 30
0.0
 40
0.5
 41
0.5
  0
VERTEX
  8
0
 10
43.342
 20
66.4814
 30
0.0
 40
0.5
 41
0.5
  0
VERTEX
  8
0
 10
41.5493
 20
66.1194
 30
0.0
 40
0.5
 41
0.5
  0
VERTEX
  8
0
 10
35.1792
 20
66.1194
 30
0.0
 40
0.5
 41
0.5
  0
VERTEX
  8
0
 10
33.3848
 20
66.4814
 30
0.0
 40
0.5
 41
0.5
  0
VERTEX
  8
0
 10
31.918
 20
67.4685
 30
0.0
 40
0.5
 41
0.5
  0
VERTEX
  8
0
 10
30.928
 20
68.9329
 30
0.0
 40
0.5
 41
0.5
  0
VERTEX
  8
0
 10
30.5649
 20
70.7256
 30
0.0
 40
0.5
 41
0.5
  0
VERTEX
  8
0
 10
30.9268
 20
72.5188
 30
0.0
 40
0.5
 41
0.5
  0
VERTEX
  8
0
 10
31.9141
 20
73.9829
 30
0.0
 40
0.5
 41
0.5
  0
VERTEX
  8
0
 10
33.3782
 20
74.9702
 30
0.0
 40
0.5
 41
0.5
  0
VERTEX
  8
0
 10
35.1714
 20
75.332
 30
0.0
 40
0.5
 41
0.5
  0
VERTEX
  8
0
 10
41.5649
 20
75.332
 30
0.0
 40
0.5
 41
0.5
  0
SEQEND
  8
0
  0
ENDSEC
  0
EOF
