  0
SECTION
  2
HEADER
  9
$ACADVER
  1
AC1009
  9
$EXTMIN
 10
0.0
 20
0.0
 30
0.0
  9
$EXTMAX
 10
1000.0
 20
1000.0
 30
0.0
  9
$FILLMODE
 70
 0
  9
$SPLFRAME
 70
 1
  0
ENDSEC
  0
SECTION
  2
TABLES
  0
TABLE
  2
LAYER
 70
   255
  0
LAYER
  2
0
 70
     0
 62
     7
  6
CONTINUOUS
  0
ENDTAB
  0
ENDSEC
  0
SECTION
  2
ENTITIES
  0
POLYLINE
8
0
 62
     0
 66
     1
 10
0
 20
0
 30
0.0
 70
     1
 40
0.5
 41
0.5
  0
VERTEX
  8
0
 10
62.511
 20
123.992
 30
0.0
 40
0.5
 41
0.5
  0
VERTEX
  8
0
 10
63.9282
 20
123.992
 30
0.0
 40
0.5
 41
0.5
  0
VERTEX
  8
0
 10
63.9282
 20
61.6296
 30
0.0
 40
0.5
 41
0.5
  0
VERTEX
  8
0
 10
62.511
 20
61.6296
 30
0.0
 40
0.5
 41
0.5
  0
VERTEX
  8
0
 10
62.511
 20
123.992
 30
0.0
 40
0.5
 41
0.5
  0
SEQEND
  8
0
  0
POLYLINE
8
0
 62
     0
 66
     1
 10
0
 20
0
 30
0.0
 70
     1
 40
0.5
 41
0.5
  0
VERTEX
  8
0
 10
365.818
 20
123.994
 30
0.0
 40
0.5
 41
0.5
  0
VERTEX
  8
0
 10
367.236
 20
123.994
 30
0.0
 40
0.5
 41
0.5
  0
VERTEX
  8
0
 10
367.236
 20
61.6318
 30
0.0
 40
0.5
 41
0.5
  0
VERTEX
  8
0
 10
365.818
 20
61.6318
 30
0.0
 40
0.5
 41
0.5
  0
VERTEX
  8
0
 10
365.818
 20
123.994
 30
0.0
 40
0.5
 41
0.5
  0
SEQEND
  8
0
  0
POLYLINE
8
0
 62
     0
 66
     1
 10
0
 20
0
 30
0.0
 70
     1
 40
0.5
 41
0.5
  0
VERTEX
  8
0
 10
68.8865
 20
111.237
 30
0.0
 40
0.5
 41
0.5
  0
VERTEX
  8
0
 10
69.2205
 20
112.892
 30
0.0
 40
0.5
 41
0.5
  0
VERTEX
  8
0
 10
70.1318
 20
114.244
 30
0.0
 40
0.5
 41
0.5
  0
VERTEX
  8
0
 10
71.4834
 20
115.155
 30
0.0
 40
0.5
 41
0.5
  0
VERTEX
  8
0
 10
73.1384
 20
115.489
 30
0.0
 40
0.5
 41
0.5
  0
VERTEX
  8
0
 10
74.7935
 20
115.155
 30
0.0
 40
0.5
 41
0.5
  0
VERTEX
  8
0
 10
76.145
 20
114.244
 30
0.0
 40
0.5
 41
0.5
  0
VERTEX
  8
0
 10
77.0564
 20
112.892
 30
0.0
 40
0.5
 41
0.5
  0
VERTEX
  8
0
 10
77.3906
 20
111.237
 30
0.0
 40
0.5
 41
0.5
  0
VERTEX
  8
0
 10
77.0564
 20
109.582
 30
0.0
 40
0.5
 41
0.5
  0
VERTEX
  8
0
 10
76.145
 20
108.231
 30
0.0
 40
0.5
 41
0.5
  0
VERTEX
  8
0
 10
74.7935
 20
107.32
 30
0.0
 40
0.5
 41
0.5
  0
VERTEX
  8
0
 10
73.1384
 20
106.985
 30
0.0
 40
0.5
 41
0.5
  0
VERTEX
  8
0
 10
71.4834
 20
107.32
 30
0.0
 40
0.5
 41
0.5
  0
VERTEX
  8
0
 10
70.1318
 20
108.231
 30
0.0
 40
0.5
 41
0.5
  0
VERTEX
  8
0
 10
69.2205
 20
109.582
 30
0.0
 40
0.5
 41
0.5
  0
VERTEX
  8
0
 10
68.8865
 20
111.237
 30
0.0
 40
0.5
 41
0.5
  0
SEQEND
  8
0
  0
POLYLINE
8
0
 62
     0
 66
     1
 10
0
 20
0
 30
0.0
 70
     1
 40
0.5
 41
0.5
  0
VERTEX
  8
0
 10
68.8865
 20
74.3867
 30
0.0
 40
0.5
 41
0.5
  0
VERTEX
  8
0
 10
69.2205
 20
76.042
 30
0.0
 40
0.5
 41
0.5
  0
VERTEX
  8
0
 10
70.1318
 20
77.3936
 30
0.0
 40
0.5
 41
0.5
  0
VERTEX
  8
0
 10
71.4834
 20
78.3049
 30
0.0
 40
0.5
 41
0.5
  0
VERTEX
  8
0
 10
73.1384
 20
78.6389
 30
0.0
 40
0.5
 41
0.5
  0
VERTEX
  8
0
 10
74.7935
 20
78.3049
 30
0.0
 40
0.5
 41
0.5
  0
VERTEX
  8
0
 10
76.145
 20
77.3936
 30
0.0
 40
0.5
 41
0.5
  0
VERTEX
  8
0
 10
77.0564
 20
76.042
 30
0.0
 40
0.5
 41
0.5
  0
VERTEX
  8
0
 10
77.3906
 20
74.3867
 30
0.0
 40
0.5
 41
0.5
  0
VERTEX
  8
0
 10
77.0564
 20
72.7319
 30
0.0
 40
0.5
 41
0.5
  0
VERTEX
  8
0
 10
76.145
 20
71.3804
 30
0.0
 40
0.5
 41
0.5
  0
VERTEX
  8
0
 10
74.7935
 20
70.4692
 30
0.0
 40
0.5
 41
0.5
  0
VERTEX
  8
0
 10
73.1384
 20
70.135
 30
0.0
 40
0.5
 41
0.5
  0
VERTEX
  8
0
 10
71.4834
 20
70.4692
 30
0.0
 40
0.5
 41
0.5
  0
VERTEX
  8
0
 10
70.1318
 20
71.3804
 30
0.0
 40
0.5
 41
0.5
  0
VERTEX
  8
0
 10
69.2205
 20
72.7319
 30
0.0
 40
0.5
 41
0.5
  0
VERTEX
  8
0
 10
68.8865
 20
74.3867
 30
0.0
 40
0.5
 41
0.5
  0
SEQEND
  8
0
  0
POLYLINE
8
0
 62
     0
 66
     1
 10
0
 20
0
 30
0.0
 70
     1
 40
0.5
 41
0.5
  0
VERTEX
  8
0
 10
352.351
 20
111.237
 30
0.0
 40
0.5
 41
0.5
  0
VERTEX
  8
0
 10
352.685
 20
112.892
 30
0.0
 40
0.5
 41
0.5
  0
VERTEX
  8
0
 10
353.596
 20
114.244
 30
0.0
 40
0.5
 41
0.5
  0
VERTEX
  8
0
 10
354.948
 20
115.155
 30
0.0
 40
0.5
 41
0.5
  0
VERTEX
  8
0
 10
356.603
 20
115.489
 30
0.0
 40
0.5
 41
0.5
  0
VERTEX
  8
0
 10
358.258
 20
115.155
 30
0.0
 40
0.5
 41
0.5
  0
VERTEX
  8
0
 10
359.61
 20
114.244
 30
0.0
 40
0.5
 41
0.5
  0
VERTEX
  8
0
 10
360.521
 20
112.892
 30
0.0
 40
0.5
 41
0.5
  0
VERTEX
  8
0
 10
360.855
 20
111.237
 30
0.0
 40
0.5
 41
0.5
  0
VERTEX
  8
0
 10
360.521
 20
109.582
 30
0.0
 40
0.5
 41
0.5
  0
VERTEX
  8
0
 10
359.61
 20
108.231
 30
0.0
 40
0.5
 41
0.5
  0
VERTEX
  8
0
 10
358.258
 20
107.32
 30
0.0
 40
0.5
 41
0.5
  0
VERTEX
  8
0
 10
356.603
 20
106.985
 30
0.0
 40
0.5
 41
0.5
  0
VERTEX
  8
0
 10
354.948
 20
107.32
 30
0.0
 40
0.5
 41
0.5
  0
VERTEX
  8
0
 10
353.596
 20
108.231
 30
0.0
 40
0.5
 41
0.5
  0
VERTEX
  8
0
 10
352.685
 20
109.582
 30
0.0
 40
0.5
 41
0.5
  0
VERTEX
  8
0
 10
352.351
 20
111.237
 30
0.0
 40
0.5
 41
0.5
  0
SEQEND
  8
0
  0
POLYLINE
8
0
 62
     0
 66
     1
 10
0
 20
0
 30
0.0
 70
     1
 40
0.5
 41
0.5
  0
VERTEX
  8
0
 10
352.351
 20
74.3867
 30
0.0
 40
0.5
 41
0.5
  0
VERTEX
  8
0
 10
352.685
 20
76.042
 30
0.0
 40
0.5
 41
0.5
  0
VERTEX
  8
0
 10
353.596
 20
77.3936
 30
0.0
 40
0.5
 41
0.5
  0
VERTEX
  8
0
 10
354.948
 20
78.3049
 30
0.0
 40
0.5
 41
0.5
  0
VERTEX
  8
0
 10
356.603
 20
78.6389
 30
0.0
 40
0.5
 41
0.5
  0
VERTEX
  8
0
 10
358.258
 20
78.3049
 30
0.0
 40
0.5
 41
0.5
  0
VERTEX
  8
0
 10
359.61
 20
77.3936
 30
0.0
 40
0.5
 41
0.5
  0
VERTEX
  8
0
 10
360.521
 20
76.042
 30
0.0
 40
0.5
 41
0.5
  0
VERTEX
  8
0
 10
360.855
 20
74.3867
 30
0.0
 40
0.5
 41
0.5
  0
VERTEX
  8
0
 10
360.521
 20
72.7319
 30
0.0
 40
0.5
 41
0.5
  0
VERTEX
  8
0
 10
359.61
 20
71.3804
 30
0.0
 40
0.5
 41
0.5
  0
VERTEX
  8
0
 10
358.258
 20
70.4692
 30
0.0
 40
0.5
 41
0.5
  0
VERTEX
  8
0
 10
356.603
 20
70.135
 30
0.0
 40
0.5
 41
0.5
  0
VERTEX
  8
0
 10
354.948
 20
70.4692
 30
0.0
 40
0.5
 41
0.5
  0
VERTEX
  8
0
 10
353.596
 20
71.3804
 30
0.0
 40
0.5
 41
0.5
  0
VERTEX
  8
0
 10
352.685
 20
72.7319
 30
0.0
 40
0.5
 41
0.5
  0
VERTEX
  8
0
 10
352.351
 20
74.3867
 30
0.0
 40
0.5
 41
0.5
  0
SEQEND
  8
0
  0
POLYLINE
8
0
 62
     0
 66
     1
 10
0
 20
0
 30
0.0
 70
     1
 40
0.5
 41
0.5
  0
VERTEX
  8
0
 10
113.391
 20
73.6782
 30
0.0
 40
0.5
 41
0.5
  0
VERTEX
  8
0
 10
114.055
 20
75.2817
 30
0.0
 40
0.5
 41
0.5
  0
VERTEX
  8
0
 10
115.658
 20
75.9458
 30
0.0
 40
0.5
 41
0.5
  0
VERTEX
  8
0
 10
117.262
 20
75.2817
 30
0.0
 40
0.5
 41
0.5
  0
VERTEX
  8
0
 10
117.926
 20
73.6782
 30
0.0
 40
0.5
 41
0.5
  0
VERTEX
  8
0
 10
117.262
 20
72.0747
 30
0.0
 40
0.5
 41
0.5
  0
VERTEX
  8
0
 10
115.658
 20
71.4104
 30
0.0
 40
0.5
 41
0.5
  0
VERTEX
  8
0
 10
114.055
 20
72.0747
 30
0.0
 40
0.5
 41
0.5
  0
VERTEX
  8
0
 10
113.391
 20
73.6782
 30
0.0
 40
0.5
 41
0.5
  0
SEQEND
  8
0
  0
POLYLINE
8
0
 62
     0
 66
     1
 10
0
 20
0
 30
0.0
 40
0.5
 41
0.5
  0
VERTEX
  8
0
 10
0.565674
 20
61.6743
 30
0.0
 40
0.5
 41
0.5
  0
VERTEX
  8
0
 10
26.9565
 20
61.6743
 30
0.0
 40
0.5
 41
0.5
  0
SEQEND
  8
0
  0
POLYLINE
8
0
 62
     0
 66
     1
 10
0
 20
0
 30
0.0
 40
0.5
 41
0.5
  0
VERTEX
  8
0
 10
0.565674
 20
124.037
 30
0.0
 40
0.5
 41
0.5
  0
VERTEX
  8
0
 10
26.9565
 20
124.037
 30
0.0
 40
0.5
 41
0.5
  0
SEQEND
  8
0
  0
POLYLINE
8
0
 62
     0
 66
     1
 10
0
 20
0
 30
0.0
 40
0.5
 41
0.5
  0
VERTEX
  8
0
 10
8.85864
 20
63.8188
 30
0.0
 40
0.5
 41
0.5
  0
VERTEX
  8
0
 10
8.85864
 20
121.934
 30
0.0
 40
0.5
 41
0.5
  0
SEQEND
  8
0
  0
POLYLINE
8
0
 62
     0
 66
     1
 10
0
 20
0
 30
0.0
 70
     1
 40
0.5
 41
0.5
  0
VERTEX
  8
0
 10
2.90039
 20
97.1189
 30
0.0
 40
0.5
 41
0.5
  0
VERTEX
  8
0
 10
2.90039
 20
96.1345
 30
0.0
 40
0.5
 41
0.5
  0
VERTEX
  8
0
 10
2.33789
 20
96.1345
 30
0.0
 40
0.5
 41
0.5
  0
VERTEX
  8
0
 10
2.33789
 20
97.1189
 30
0.0
 40
0.5
 41
0.5
  0
VERTEX
  8
0
 10
0.509766
 20
97.1189
 30
0.0
 40
0.5
 41
0.5
  0
VERTEX
  8
0
 10
0.509766
 20
97.6814
 30
0.0
 40
0.5
 41
0.5
  0
VERTEX
  8
0
 10
2.33789
 20
97.6814
 30
0.0
 40
0.5
 41
0.5
  0
VERTEX
  8
0
 10
2.33789
 20
100.283
 30
0.0
 40
0.5
 41
0.5
  0
VERTEX
  8
0
 10
2.90039
 20
100.283
 30
0.0
 40
0.5
 41
0.5
  0
VERTEX
  8
0
 10
7.36523
 20
97.6814
 30
0.0
 40
0.5
 41
0.5
  0
VERTEX
  8
0
 10
7.36523
 20
97.1189
 30
0.0
 40
0.5
 41
0.5
  0
VERTEX
  8
0
 10
2.90039
 20
97.1189
 30
0.0
 40
0.5
 41
0.5
  0
SEQEND
  8
0
  0
POLYLINE
8
0
 62
     0
 66
     1
 10
0
 20
0
 30
0.0
 70
     1
 40
0.5
 41
0.5
  0
VERTEX
  8
0
 10
2.90039
 20
97.6814
 30
0.0
 40
0.5
 41
0.5
  0
VERTEX
  8
0
 10
6.24023
 20
97.6814
 30
0.0
 40
0.5
 41
0.5
  0
VERTEX
  8
0
 10
2.90039
 20
99.6501
 30
0.0
 40
0.5
 41
0.5
  0
VERTEX
  8
0
 10
2.90039
 20
97.6814
 30
0.0
 40
0.5
 41
0.5
  0
SEQEND
  8
0
  0
POLYLINE
8
0
 62
     0
 66
     1
 10
0
 20
0
 30
0.0
 70
     1
 40
0.5
 41
0.5
  0
VERTEX
  8
0
 10
2.90039
 20
91.8809
 30
0.0
 40
0.5
 41
0.5
  0
VERTEX
  8
0
 10
2.90039
 20
90.8965
 30
0.0
 40
0.5
 41
0.5
  0
VERTEX
  8
0
 10
2.33789
 20
90.8965
 30
0.0
 40
0.5
 41
0.5
  0
VERTEX
  8
0
 10
2.33789
 20
91.8809
 30
0.0
 40
0.5
 41
0.5
  0
VERTEX
  8
0
 10
0.509766
 20
91.8809
 30
0.0
 40
0.5
 41
0.5
  0
VERTEX
  8
0
 10
0.509766
 20
92.4434
 30
0.0
 40
0.5
 41
0.5
  0
VERTEX
  8
0
 10
2.33789
 20
92.4434
 30
0.0
 40
0.5
 41
0.5
  0
VERTEX
  8
0
 10
2.33789
 20
95.0449
 30
0.0
 40
0.5
 41
0.5
  0
VERTEX
  8
0
 10
2.90039
 20
95.0449
 30
0.0
 40
0.5
 41
0.5
  0
VERTEX
  8
0
 10
7.36523
 20
92.4434
 30
0.0
 40
0.5
 41
0.5
  0
VERTEX
  8
0
 10
7.36523
 20
91.8809
 30
0.0
 40
0.5
 41
0.5
  0
VERTEX
  8
0
 10
2.90039
 20
91.8809
 30
0.0
 40
0.5
 41
0.5
  0
SEQEND
  8
0
  0
POLYLINE
8
0
 62
     0
 66
     1
 10
0
 20
0
 30
0.0
 70
     1
 40
0.5
 41
0.5
  0
VERTEX
  8
0
 10
2.90039
 20
92.4434
 30
0.0
 40
0.5
 41
0.5
  0
VERTEX
  8
0
 10
6.24023
 20
92.4434
 30
0.0
 40
0.5
 41
0.5
  0
VERTEX
  8
0
 10
2.90039
 20
94.4121
 30
0.0
 40
0.5
 41
0.5
  0
VERTEX
  8
0
 10
2.90039
 20
92.4434
 30
0.0
 40
0.5
 41
0.5
  0
SEQEND
  8
0
  0
POLYLINE
8
0
 62
     0
 66
     1
 10
0
 20
0
 30
0.0
 70
     1
 40
0.5
 41
0.5
  0
VERTEX
  8
0
 10
1.24805
 20
89.104
 30
0.0
 40
0.5
 41
0.5
  0
VERTEX
  8
0
 10
0.509766
 20
89.104
 30
0.0
 40
0.5
 41
0.5
  0
VERTEX
  8
0
 10
0.509766
 20
89.8071
 30
0.0
 40
0.5
 41
0.5
  0
VERTEX
  8
0
 10
1.24805
 20
89.8071
 30
0.0
 40
0.5
 41
0.5
  0
VERTEX
  8
0
 10
1.24805
 20
89.104
 30
0.0
 40
0.5
 41
0.5
  0
SEQEND
  8
0
  0
POLYLINE
8
0
 62
     0
 66
     1
 10
0
 20
0
 30
0.0
 70
     1
 40
0.5
 41
0.5
  0
VERTEX
  8
0
 10
6.80273
 20
85.9329
 30
0.0
 40
0.5
 41
0.5
  0
VERTEX
  8
0
 10
6.41602
 20
86.8118
 30
0.0
 40
0.5
 41
0.5
  0
VERTEX
  8
0
 10
3.91992
 20
87.3743
 30
0.0
 40
0.5
 41
0.5
  0
VERTEX
  8
0
 10
1.45898
 20
86.8118
 30
0.0
 40
0.5
 41
0.5
  0
VERTEX
  8
0
 10
1.07227
 20
85.9329
 30
0.0
 40
0.5
 41
0.5
  0
VERTEX
  8
0
 10
1.45898
 20
85.054
 30
0.0
 40
0.5
 41
0.5
  0
VERTEX
  8
0
 10
3.91992
 20
84.4915
 30
0.0
 40
0.5
 41
0.5
  0
VERTEX
  8
0
 10
6.41602
 20
85.054
 30
0.0
 40
0.5
 41
0.5
  0
VERTEX
  8
0
 10
6.80273
 20
85.9329
 30
0.0
 40
0.5
 41
0.5
  0
SEQEND
  8
0
  0
POLYLINE
8
0
 62
     0
 66
     1
 10
0
 20
0
 30
0.0
 70
     1
 40
0.5
 41
0.5
  0
VERTEX
  8
0
 10
7.36523
 20
85.9329
 30
0.0
 40
0.5
 41
0.5
  0
VERTEX
  8
0
 10
6.83789
 20
84.7024
 30
0.0
 40
0.5
 41
0.5
  0
VERTEX
  8
0
 10
5.72168
 20
84.1223
 30
0.0
 40
0.5
 41
0.5
  0
VERTEX
  8
0
 10
3.91992
 20
83.929
 30
0.0
 40
0.5
 41
0.5
  0
VERTEX
  8
0
 10
2.14453
 20
84.1223
 30
0.0
 40
0.5
 41
0.5
  0
VERTEX
  8
0
 10
1.03711
 20
84.7024
 30
0.0
 40
0.5
 41
0.5
  0
VERTEX
  8
0
 10
0.509766
 20
85.9329
 30
0.0
 40
0.5
 41
0.5
  0
VERTEX
  8
0
 10
1.03711
 20
87.1633
 30
0.0
 40
0.5
 41
0.5
  0
VERTEX
  8
0
 10
2.14453
 20
87.7434
 30
0.0
 40
0.5
 41
0.5
  0
VERTEX
  8
0
 10
3.91992
 20
87.9368
 30
0.0
 40
0.5
 41
0.5
  0
VERTEX
  8
0
 10
5.72168
 20
87.7434
 30
0.0
 40
0.5
 41
0.5
  0
VERTEX
  8
0
 10
6.83789
 20
87.1633
 30
0.0
 40
0.5
 41
0.5
  0
VERTEX
  8
0
 10
7.36523
 20
85.9329
 30
0.0
 40
0.5
 41
0.5
  0
SEQEND
  8
0
  0
POLYLINE
8
0
 62
     0
 66
     1
 10
0
 20
0
 30
0.0
 40
0.5
 41
0.5
  0
VERTEX
  8
0
 10
27.0615
 20
3.62598
 30
0.0
 40
0.5
 41
0.5
  0
VERTEX
  8
0
 10
27.0615
 20
61.9424
 30
0.0
 40
0.5
 41
0.5
  0
SEQEND
  8
0
  0
POLYLINE
8
0
 62
     0
 66
     1
 10
0
 20
0
 30
0.0
 40
0.5
 41
0.5
  0
VERTEX
  8
0
 10
707.349
 20
2.87598
 30
0.0
 40
0.5
 41
0.5
  0
VERTEX
  8
0
 10
707.349
 20
61.9424
 30
0.0
 40
0.5
 41
0.5
  0
SEQEND
  8
0
  0
POLYLINE
8
0
 62
     0
 66
     1
 10
0
 20
0
 30
0.0
 40
0.5
 41
0.5
  0
VERTEX
  8
0
 10
705.284
 20
8.89038
 30
0.0
 40
0.5
 41
0.5
  0
VERTEX
  8
0
 10
29.0674
 20
8.89038
 30
0.0
 40
0.5
 41
0.5
  0
SEQEND
  8
0
  0
POLYLINE
8
0
 62
     0
 66
     1
 10
0
 20
0
 30
0.0
 70
     1
 40
0.5
 41
0.5
  0
VERTEX
  8
0
 10
335.661
 20
2.80347
 30
0.0
 40
0.5
 41
0.5
  0
VERTEX
  8
0
 10
336.646
 20
2.80347
 30
0.0
 40
0.5
 41
0.5
  0
VERTEX
  8
0
 10
336.646
 20
2.24097
 30
0.0
 40
0.5
 41
0.5
  0
VERTEX
  8
0
 10
335.661
 20
2.24097
 30
0.0
 40
0.5
 41
0.5
  0
VERTEX
  8
0
 10
335.661
 20
0.412842
 30
0.0
 40
0.5
 41
0.5
  0
VERTEX
  8
0
 10
335.099
 20
0.412842
 30
0.0
 40
0.5
 41
0.5
  0
VERTEX
  8
0
 10
335.099
 20
2.24097
 30
0.0
 40
0.5
 41
0.5
  0
VERTEX
  8
0
 10
332.497
 20
2.24097
 30
0.0
 40
0.5
 41
0.5
  0
VERTEX
  8
0
 10
332.497
 20
2.80347
 30
0.0
 40
0.5
 41
0.5
  0
VERTEX
  8
0
 10
335.099
 20
7.26855
 30
0.0
 40
0.5
 41
0.5
  0
VERTEX
  8
0
 10
335.661
 20
7.26855
 30
0.0
 40
0.5
 41
0.5
  0
VERTEX
  8
0
 10
335.661
 20
2.80347
 30
0.0
 40
0.5
 41
0.5
  0
SEQEND
  8
0
  0
POLYLINE
8
0
 62
     0
 66
     1
 10
0
 20
0
 30
0.0
 70
     1
 40
0.5
 41
0.5
  0
VERTEX
  8
0
 10
335.099
 20
2.80347
 30
0.0
 40
0.5
 41
0.5
  0
VERTEX
  8
0
 10
335.099
 20
6.14355
 30
0.0
 40
0.5
 41
0.5
  0
VERTEX
  8
0
 10
333.13
 20
2.80347
 30
0.0
 40
0.5
 41
0.5
  0
VERTEX
  8
0
 10
335.099
 20
2.80347
 30
0.0
 40
0.5
 41
0.5
  0
SEQEND
  8
0
  0
POLYLINE
8
0
 62
     0
 66
     1
 10
0
 20
0
 30
0.0
 70
     1
 40
0.5
 41
0.5
  0
VERTEX
  8
0
 10
339.809
 20
3.68262
 30
0.0
 40
0.5
 41
0.5
  0
VERTEX
  8
0
 10
338.86
 20
3.29565
 30
0.0
 40
0.5
 41
0.5
  0
VERTEX
  8
0
 10
338.438
 20
2.27612
 30
0.0
 40
0.5
 41
0.5
  0
VERTEX
  8
0
 10
338.755
 20
1.36206
 30
0.0
 40
0.5
 41
0.5
  0
VERTEX
  8
0
 10
339.809
 20
0.975342
 30
0.0
 40
0.5
 41
0.5
  0
VERTEX
  8
0
 10
340.864
 20
1.36206
 30
0.0
 40
0.5
 41
0.5
  0
VERTEX
  8
0
 10
341.18
 20
2.27612
 30
0.0
 40
0.5
 41
0.5
  0
VERTEX
  8
0
 10
340.759
 20
3.29565
 30
0.0
 40
0.5
 41
0.5
  0
VERTEX
  8
0
 10
339.809
 20
3.68262
 30
0.0
 40
0.5
 41
0.5
  0
SEQEND
  8
0
  0
POLYLINE
8
0
 62
     0
 66
     1
 10
0
 20
0
 30
0.0
 70
     1
 40
0.5
 41
0.5
  0
VERTEX
  8
0
 10
339.809
 20
7.26855
 30
0.0
 40
0.5
 41
0.5
  0
VERTEX
  8
0
 10
341.075
 20
6.77612
 30
0.0
 40
0.5
 41
0.5
  0
VERTEX
  8
0
 10
341.532
 20
5.51074
 30
0.0
 40
0.5
 41
0.5
  0
VERTEX
  8
0
 10
341.11
 20
4.35034
 30
0.0
 40
0.5
 41
0.5
  0
VERTEX
  8
0
 10
340.583
 20
3.96362
 30
0.0
 40
0.5
 41
0.5
  0
VERTEX
  8
0
 10
341.216
 20
3.54175
 30
0.0
 40
0.5
 41
0.5
  0
VERTEX
  8
0
 10
341.673
 20
2.27612
 30
0.0
 40
0.5
 41
0.5
  0
VERTEX
  8
0
 10
341.18
 20
0.94043
 30
0.0
 40
0.5
 41
0.5
  0
VERTEX
  8
0
 10
339.809
 20
0.412842
 30
0.0
 40
0.5
 41
0.5
  0
VERTEX
  8
0
 10
338.438
 20
0.94043
 30
0.0
 40
0.5
 41
0.5
  0
VERTEX
  8
0
 10
337.946
 20
2.24097
 30
0.0
 40
0.5
 41
0.5
  0
VERTEX
  8
0
 10
338.403
 20
3.54175
 30
0.0
 40
0.5
 41
0.5
  0
VERTEX
  8
0
 10
339.001
 20
3.96362
 30
0.0
 40
0.5
 41
0.5
  0
VERTEX
  8
0
 10
338.544
 20
4.31543
 30
0.0
 40
0.5
 41
0.5
  0
VERTEX
  8
0
 10
338.087
 20
5.54565
 30
0.0
 40
0.5
 41
0.5
  0
VERTEX
  8
0
 10
338.544
 20
6.77612
 30
0.0
 40
0.5
 41
0.5
  0
VERTEX
  8
0
 10
339.809
 20
7.26855
 30
0.0
 40
0.5
 41
0.5
  0
SEQEND
  8
0
  0
POLYLINE
8
0
 62
     0
 66
     1
 10
0
 20
0
 30
0.0
 70
     1
 40
0.5
 41
0.5
  0
VERTEX
  8
0
 10
339.809
 20
6.70605
 30
0.0
 40
0.5
 41
0.5
  0
VERTEX
  8
0
 10
338.93
 20
6.38965
 30
0.0
 40
0.5
 41
0.5
  0
VERTEX
  8
0
 10
338.579
 20
5.54565
 30
0.0
 40
0.5
 41
0.5
  0
VERTEX
  8
0
 10
338.93
 20
4.66675
 30
0.0
 40
0.5
 41
0.5
  0
VERTEX
  8
0
 10
339.809
 20
4.24512
 30
0.0
 40
0.5
 41
0.5
  0
VERTEX
  8
0
 10
340.723
 20
4.63184
 30
0.0
 40
0.5
 41
0.5
  0
VERTEX
  8
0
 10
341.005
 20
5.51074
 30
0.0
 40
0.5
 41
0.5
  0
VERTEX
  8
0
 10
340.688
 20
6.38965
 30
0.0
 40
0.5
 41
0.5
  0
VERTEX
  8
0
 10
339.809
 20
6.70605
 30
0.0
 40
0.5
 41
0.5
  0
SEQEND
  8
0
  0
POLYLINE
8
0
 62
     0
 66
     1
 10
0
 20
0
 30
0.0
 70
     1
 40
0.5
 41
0.5
  0
VERTEX
  8
0
 10
345.047
 20
6.70605
 30
0.0
 40
0.5
 41
0.5
  0
VERTEX
  8
0
 10
344.168
 20
6.31934
 30
0.0
 40
0.5
 41
0.5
  0
VERTEX
  8
0
 10
343.606
 20
3.82324
 30
0.0
 40
0.5
 41
0.5
  0
VERTEX
  8
0
 10
344.168
 20
1.36206
 30
0.0
 40
0.5
 41
0.5
  0
VERTEX
  8
0
 10
345.047
 20
0.975342
 30
0.0
 40
0.5
 41
0.5
  0
VERTEX
  8
0
 10
345.926
 20
1.36206
 30
0.0
 40
0.5
 41
0.5
  0
VERTEX
  8
0
 10
346.489
 20
3.82324
 30
0.0
 40
0.5
 41
0.5
  0
VERTEX
  8
0
 10
345.926
 20
6.31934
 30
0.0
 40
0.5
 41
0.5
  0
VERTEX
  8
0
 10
345.047
 20
6.70605
 30
0.0
 40
0.5
 41
0.5
  0
SEQEND
  8
0
  0
POLYLINE
8
0
 62
     0
 66
     1
 10
0
 20
0
 30
0.0
 70
     1
 40
0.5
 41
0.5
  0
VERTEX
  8
0
 10
345.047
 20
7.26855
 30
0.0
 40
0.5
 41
0.5
  0
VERTEX
  8
0
 10
346.278
 20
6.74097
 30
0.0
 40
0.5
 41
0.5
  0
VERTEX
  8
0
 10
346.858
 20
5.625
 30
0.0
 40
0.5
 41
0.5
  0
VERTEX
  8
0
 10
347.051
 20
3.82324
 30
0.0
 40
0.5
 41
0.5
  0
VERTEX
  8
0
 10
346.858
 20
2.04785
 30
0.0
 40
0.5
 41
0.5
  0
VERTEX
  8
0
 10
346.278
 20
0.94043
 30
0.0
 40
0.5
 41
0.5
  0
VERTEX
  8
0
 10
345.047
 20
0.412842
 30
0.0
 40
0.5
 41
0.5
  0
VERTEX
  8
0
 10
343.817
 20
0.94043
 30
0.0
 40
0.5
 41
0.5
  0
VERTEX
  8
0
 10
343.237
 20
2.04785
 30
0.0
 40
0.5
 41
0.5
  0
VERTEX
  8
0
 10
343.043
 20
3.82324
 30
0.0
 40
0.5
 41
0.5
  0
VERTEX
  8
0
 10
343.237
 20
5.625
 30
0.0
 40
0.5
 41
0.5
  0
VERTEX
  8
0
 10
343.817
 20
6.74097
 30
0.0
 40
0.5
 41
0.5
  0
VERTEX
  8
0
 10
345.047
 20
7.26855
 30
0.0
 40
0.5
 41
0.5
  0
SEQEND
  8
0
  0
POLYLINE
8
0
 62
     0
 66
     1
 10
0
 20
0
 30
0.0
 70
     1
 40
0.5
 41
0.5
  0
VERTEX
  8
0
 10
348.914
 20
1.15112
 30
0.0
 40
0.5
 41
0.5
  0
VERTEX
  8
0
 10
348.914
 20
0.412842
 30
0.0
 40
0.5
 41
0.5
  0
VERTEX
  8
0
 10
348.211
 20
0.412842
 30
0.0
 40
0.5
 41
0.5
  0
VERTEX
  8
0
 10
348.211
 20
1.15112
 30
0.0
 40
0.5
 41
0.5
  0
VERTEX
  8
0
 10
348.914
 20
1.15112
 30
0.0
 40
0.5
 41
0.5
  0
SEQEND
  8
0
  0
POLYLINE
8
0
 62
     0
 66
     1
 10
0
 20
0
 30
0.0
 70
     1
 40
0.5
 41
0.5
  0
VERTEX
  8
0
 10
352.085
 20
6.70605
 30
0.0
 40
0.5
 41
0.5
  0
VERTEX
  8
0
 10
351.206
 20
6.31934
 30
0.0
 40
0.5
 41
0.5
  0
VERTEX
  8
0
 10
350.644
 20
3.82324
 30
0.0
 40
0.5
 41
0.5
  0
VERTEX
  8
0
 10
351.206
 20
1.36206
 30
0.0
 40
0.5
 41
0.5
  0
VERTEX
  8
0
 10
352.085
 20
0.975342
 30
0.0
 40
0.5
 41
0.5
  0
VERTEX
  8
0
 10
352.964
 20
1.36206
 30
0.0
 40
0.5
 41
0.5
  0
VERTEX
  8
0
 10
353.526
 20
3.82324
 30
0.0
 40
0.5
 41
0.5
  0
VERTEX
  8
0
 10
352.964
 20
6.31934
 30
0.0
 40
0.5
 41
0.5
  0
VERTEX
  8
0
 10
352.085
 20
6.70605
 30
0.0
 40
0.5
 41
0.5
  0
SEQEND
  8
0
  0
POLYLINE
8
0
 62
     0
 66
     1
 10
0
 20
0
 30
0.0
 70
     1
 40
0.5
 41
0.5
  0
VERTEX
  8
0
 10
352.085
 20
7.26855
 30
0.0
 40
0.5
 41
0.5
  0
VERTEX
  8
0
 10
353.315
 20
6.74097
 30
0.0
 40
0.5
 41
0.5
  0
VERTEX
  8
0
 10
353.896
 20
5.625
 30
0.0
 40
0.5
 41
0.5
  0
VERTEX
  8
0
 10
354.089
 20
3.82324
 30
0.0
 40
0.5
 41
0.5
  0
VERTEX
  8
0
 10
353.896
 20
2.04785
 30
0.0
 40
0.5
 41
0.5
  0
VERTEX
  8
0
 10
353.315
 20
0.94043
 30
0.0
 40
0.5
 41
0.5
  0
VERTEX
  8
0
 10
352.085
 20
0.412842
 30
0.0
 40
0.5
 41
0.5
  0
VERTEX
  8
0
 10
350.854
 20
0.94043
 30
0.0
 40
0.5
 41
0.5
  0
VERTEX
  8
0
 10
350.274
 20
2.04785
 30
0.0
 40
0.5
 41
0.5
  0
VERTEX
  8
0
 10
350.081
 20
3.82324
 30
0.0
 40
0.5
 41
0.5
  0
VERTEX
  8
0
 10
350.274
 20
5.625
 30
0.0
 40
0.5
 41
0.5
  0
VERTEX
  8
0
 10
350.854
 20
6.74097
 30
0.0
 40
0.5
 41
0.5
  0
VERTEX
  8
0
 10
352.085
 20
7.26855
 30
0.0
 40
0.5
 41
0.5
  0
SEQEND
  8
0
  0
POLYLINE
8
0
 62
     0
 66
     1
 10
0
 20
0
 30
0.0
 40
0.5
 41
0.5
  0
VERTEX
  8
0
 10
367.191
 20
28.0896
 30
0.0
 40
0.5
 41
0.5
  0
VERTEX
  8
0
 10
367.191
 20
61.9424
 30
0.0
 40
0.5
 41
0.5
  0
SEQEND
  8
0
  0
POLYLINE
8
0
 62
     0
 66
     1
 10
0
 20
0
 30
0.0
 40
0.5
 41
0.5
  0
VERTEX
  8
0
 10
365.159
 20
34.6777
 30
0.0
 40
0.5
 41
0.5
  0
VERTEX
  8
0
 10
64.4658
 20
34.6777
 30
0.0
 40
0.5
 41
0.5
  0
SEQEND
  8
0
  0
POLYLINE
8
0
 62
     0
 66
     1
 10
0
 20
0
 30
0.0
 70
     1
 40
0.5
 41
0.5
  0
VERTEX
  8
0
 10
207.247
 20
33.0908
 30
0.0
 40
0.5
 41
0.5
  0
VERTEX
  8
0
 10
208.442
 20
32.5986
 30
0.0
 40
0.5
 41
0.5
  0
VERTEX
  8
0
 10
208.899
 20
31.2275
 30
0.0
 40
0.5
 41
0.5
  0
VERTEX
  8
0
 10
208.583
 20
29.9971
 30
0.0
 40
0.5
 41
0.5
  0
VERTEX
  8
0
 10
207.388
 20
28.5557
 30
0.0
 40
0.5
 41
0.5
  0
VERTEX
  8
0
 10
205.876
 20
26.7629
 30
0.0
 40
0.5
 41
0.5
  0
VERTEX
  8
0
 10
208.899
 20
26.7629
 30
0.0
 40
0.5
 41
0.5
  0
VERTEX
  8
0
 10
208.899
 20
26.2004
 30
0.0
 40
0.5
 41
0.5
  0
VERTEX
  8
0
 10
205.243
 20
26.2004
 30
0.0
 40
0.5
 41
0.5
  0
VERTEX
  8
0
 10
205.243
 20
26.8333
 30
0.0
 40
0.5
 41
0.5
  0
VERTEX
  8
0
 10
206.966
 20
28.8721
 30
0.0
 40
0.5
 41
0.5
  0
VERTEX
  8
0
 10
208.091
 20
30.2432
 30
0.0
 40
0.5
 41
0.5
  0
VERTEX
  8
0
 10
208.337
 20
31.2275
 30
0.0
 40
0.5
 41
0.5
  0
VERTEX
  8
0
 10
208.021
 20
32.2122
 30
0.0
 40
0.5
 41
0.5
  0
VERTEX
  8
0
 10
207.247
 20
32.5283
 30
0.0
 40
0.5
 41
0.5
  0
VERTEX
  8
0
 10
206.439
 20
32.1768
 30
0.0
 40
0.5
 41
0.5
  0
VERTEX
  8
0
 10
205.946
 20
30.8408
 30
0.0
 40
0.5
 41
0.5
  0
VERTEX
  8
0
 10
205.384
 20
30.8408
 30
0.0
 40
0.5
 41
0.5
  0
VERTEX
  8
0
 10
206.017
 20
32.5283
 30
0.0
 40
0.5
 41
0.5
  0
VERTEX
  8
0
 10
207.247
 20
33.0908
 30
0.0
 40
0.5
 41
0.5
  0
SEQEND
  8
0
  0
POLYLINE
8
0
 62
     0
 66
     1
 10
0
 20
0
 30
0.0
 70
     1
 40
0.5
 41
0.5
  0
VERTEX
  8
0
 10
212.766
 20
33.0557
 30
0.0
 40
0.5
 41
0.5
  0
VERTEX
  8
0
 10
212.766
 20
26.2004
 30
0.0
 40
0.5
 41
0.5
  0
VERTEX
  8
0
 10
212.204
 20
26.2004
 30
0.0
 40
0.5
 41
0.5
  0
VERTEX
  8
0
 10
212.204
 20
31.6846
 30
0.0
 40
0.5
 41
0.5
  0
VERTEX
  8
0
 10
211.009
 20
31.6846
 30
0.0
 40
0.5
 41
0.5
  0
VERTEX
  8
0
 10
211.009
 20
32.0715
 30
0.0
 40
0.5
 41
0.5
  0
VERTEX
  8
0
 10
212.204
 20
32.4932
 30
0.0
 40
0.5
 41
0.5
  0
VERTEX
  8
0
 10
212.485
 20
33.0557
 30
0.0
 40
0.5
 41
0.5
  0
VERTEX
  8
0
 10
212.766
 20
33.0557
 30
0.0
 40
0.5
 41
0.5
  0
SEQEND
  8
0
  0
POLYLINE
8
0
 62
     0
 66
     1
 10
0
 20
0
 30
0.0
 70
     1
 40
0.5
 41
0.5
  0
VERTEX
  8
0
 10
215.895
 20
29.1885
 30
0.0
 40
0.5
 41
0.5
  0
VERTEX
  8
0
 10
216.141
 20
33.0557
 30
0.0
 40
0.5
 41
0.5
  0
VERTEX
  8
0
 10
219.235
 20
33.0557
 30
0.0
 40
0.5
 41
0.5
  0
VERTEX
  8
0
 10
219.235
 20
32.4932
 30
0.0
 40
0.5
 41
0.5
  0
VERTEX
  8
0
 10
216.598
 20
32.4932
 30
0.0
 40
0.5
 41
0.5
  0
VERTEX
  8
0
 10
216.422
 20
30.0676
 30
0.0
 40
0.5
 41
0.5
  0
VERTEX
  8
0
 10
217.653
 20
30.665
 30
0.0
 40
0.5
 41
0.5
  0
VERTEX
  8
0
 10
218.883
 20
30.2083
 30
0.0
 40
0.5
 41
0.5
  0
VERTEX
  8
0
 10
219.41
 20
28.5208
 30
0.0
 40
0.5
 41
0.5
  0
VERTEX
  8
0
 10
218.813
 20
26.6572
 30
0.0
 40
0.5
 41
0.5
  0
VERTEX
  8
0
 10
217.582
 20
26.2004
 30
0.0
 40
0.5
 41
0.5
  0
VERTEX
  8
0
 10
216.352
 20
26.6926
 30
0.0
 40
0.5
 41
0.5
  0
VERTEX
  8
0
 10
215.719
 20
27.9932
 30
0.0
 40
0.5
 41
0.5
  0
VERTEX
  8
0
 10
216.317
 20
27.9932
 30
0.0
 40
0.5
 41
0.5
  0
VERTEX
  8
0
 10
216.739
 20
27.1143
 30
0.0
 40
0.5
 41
0.5
  0
VERTEX
  8
0
 10
217.582
 20
26.7629
 30
0.0
 40
0.5
 41
0.5
  0
VERTEX
  8
0
 10
218.391
 20
27.0793
 30
0.0
 40
0.5
 41
0.5
  0
VERTEX
  8
0
 10
218.848
 20
28.5208
 30
0.0
 40
0.5
 41
0.5
  0
VERTEX
  8
0
 10
218.496
 20
29.7861
 30
0.0
 40
0.5
 41
0.5
  0
VERTEX
  8
0
 10
217.653
 20
30.1025
 30
0.0
 40
0.5
 41
0.5
  0
VERTEX
  8
0
 10
216.739
 20
29.7158
 30
0.0
 40
0.5
 41
0.5
  0
VERTEX
  8
0
 10
216.387
 20
29.1885
 30
0.0
 40
0.5
 41
0.5
  0
VERTEX
  8
0
 10
215.895
 20
29.1885
 30
0.0
 40
0.5
 41
0.5
  0
SEQEND
  8
0
  0
POLYLINE
8
0
 62
     0
 66
     1
 10
0
 20
0
 30
0.0
 70
     1
 40
0.5
 41
0.5
  0
VERTEX
  8
0
 10
221.414
 20
26.9385
 30
0.0
 40
0.5
 41
0.5
  0
VERTEX
  8
0
 10
221.414
 20
26.2004
 30
0.0
 40
0.5
 41
0.5
  0
VERTEX
  8
0
 10
220.711
 20
26.2004
 30
0.0
 40
0.5
 41
0.5
  0
VERTEX
  8
0
 10
220.711
 20
26.9385
 30
0.0
 40
0.5
 41
0.5
  0
VERTEX
  8
0
 10
221.414
 20
26.9385
 30
0.0
 40
0.5
 41
0.5
  0
SEQEND
  8
0
  0
POLYLINE
8
0
 62
     0
 66
     1
 10
0
 20
0
 30
0.0
 70
     1
 40
0.5
 41
0.5
  0
VERTEX
  8
0
 10
224.585
 20
32.4932
 30
0.0
 40
0.5
 41
0.5
  0
VERTEX
  8
0
 10
223.706
 20
32.1064
 30
0.0
 40
0.5
 41
0.5
  0
VERTEX
  8
0
 10
223.144
 20
29.6104
 30
0.0
 40
0.5
 41
0.5
  0
VERTEX
  8
0
 10
223.706
 20
27.1497
 30
0.0
 40
0.5
 41
0.5
  0
VERTEX
  8
0
 10
224.585
 20
26.7629
 30
0.0
 40
0.5
 41
0.5
  0
VERTEX
  8
0
 10
225.464
 20
27.1497
 30
0.0
 40
0.5
 41
0.5
  0
VERTEX
  8
0
 10
226.026
 20
29.6104
 30
0.0
 40
0.5
 41
0.5
  0
VERTEX
  8
0
 10
225.464
 20
32.1064
 30
0.0
 40
0.5
 41
0.5
  0
VERTEX
  8
0
 10
224.585
 20
32.4932
 30
0.0
 40
0.5
 41
0.5
  0
SEQEND
  8
0
  0
POLYLINE
8
0
 62
     0
 66
     1
 10
0
 20
0
 30
0.0
 70
     1
 40
0.5
 41
0.5
  0
VERTEX
  8
0
 10
224.585
 20
33.0557
 30
0.0
 40
0.5
 41
0.5
  0
VERTEX
  8
0
 10
225.815
 20
32.5283
 30
0.0
 40
0.5
 41
0.5
  0
VERTEX
  8
0
 10
226.396
 20
31.4124
 30
0.0
 40
0.5
 41
0.5
  0
VERTEX
  8
0
 10
226.589
 20
29.6104
 30
0.0
 40
0.5
 41
0.5
  0
VERTEX
  8
0
 10
226.396
 20
27.8352
 30
0.0
 40
0.5
 41
0.5
  0
VERTEX
  8
0
 10
225.815
 20
26.7275
 30
0.0
 40
0.5
 41
0.5
  0
VERTEX
  8
0
 10
224.585
 20
26.2004
 30
0.0
 40
0.5
 41
0.5
  0
VERTEX
  8
0
 10
223.354
 20
26.7275
 30
0.0
 40
0.5
 41
0.5
  0
VERTEX
  8
0
 10
222.774
 20
27.8352
 30
0.0
 40
0.5
 41
0.5
  0
VERTEX
  8
0
 10
222.581
 20
29.6104
 30
0.0
 40
0.5
 41
0.5
  0
VERTEX
  8
0
 10
222.774
 20
31.4121
 30
0.0
 40
0.5
 41
0.5
  0
VERTEX
  8
0
 10
223.354
 20
32.5283
 30
0.0
 40
0.5
 41
0.5
  0
VERTEX
  8
0
 10
224.585
 20
33.0557
 30
0.0
 40
0.5
 41
0.5
  0
SEQEND
  8
0
  0
POLYLINE
8
0
 62
     0
 66
     1
 10
0
 20
0
 30
0.0
 40
0.5
 41
0.5
  0
VERTEX
  8
0
 10
62.467
 20
28.0896
 30
0.0
 40
0.5
 41
0.5
  0
VERTEX
  8
0
 10
62.467
 20
61.9424
 30
0.0
 40
0.5
 41
0.5
  0
SEQEND
  8
0
  0
POLYLINE
8
0
 62
     0
 66
     1
 10
0
 20
0
 30
0.0
 70
     1
 40
0.5
 41
0.5
  0
VERTEX
  8
0
 10
63.926
 20
123.993
 30
0.0
 40
0.5
 41
0.5
  0
VERTEX
  8
0
 10
365.816
 20
123.993
 30
0.0
 40
0.5
 41
0.5
  0
VERTEX
  8
0
 10
365.816
 20
61.6309
 30
0.0
 40
0.5
 41
0.5
  0
VERTEX
  8
0
 10
63.926
 20
61.6309
 30
0.0
 40
0.5
 41
0.5
  0
VERTEX
  8
0
 10
63.926
 20
123.993
 30
0.0
 40
0.5
 41
0.5
  0
SEQEND
  8
0
  0
POLYLINE
8
0
 62
     0
 66
     1
 10
0
 20
0
 30
0.0
 40
0.5
 41
0.5
  0
VERTEX
  8
0
 10
83.7686
 20
109.604
 30
0.0
 40
0.5
 41
0.5
  0
VERTEX
  8
0
 10
345.978
 20
109.604
 30
0.0
 40
0.5
 41
0.5
  0
SEQEND
  8
0
  0
POLYLINE
8
0
 62
     0
 66
     1
 10
0
 20
0
 30
0.0
 70
     1
 40
0.5
 41
0.5
  0
VERTEX
  8
0
 10
84.5935
 20
114.844
 30
0.0
 40
0.5
 41
0.5
  0
VERTEX
  8
0
 10
84.5935
 20
111.499
 30
0.0
 40
0.5
 41
0.5
  0
VERTEX
  8
0
 10
85.7385
 20
111.499
 30
0.0
 40
0.5
 41
0.5
  0
VERTEX
  8
0
 10
85.7385
 20
111.104
 30
0.0
 40
0.5
 41
0.5
  0
VERTEX
  8
0
 10
84.1235
 20
111.104
 30
0.0
 40
0.5
 41
0.5
  0
VERTEX
  8
0
 10
84.1235
 20
114.844
 30
0.0
 40
0.5
 41
0.5
  0
VERTEX
  8
0
 10
84.5935
 20
114.844
 30
0.0
 40
0.5
 41
0.5
  0
SEQEND
  8
0
  0
POLYLINE
8
0
 62
     0
 66
     1
 10
0
 20
0
 30
0.0
 70
     1
 40
0.5
 41
0.5
  0
VERTEX
  8
0
 10
86.5654
 20
113.428
 30
0.0
 40
0.5
 41
0.5
  0
VERTEX
  8
0
 10
86.5654
 20
111.104
 30
0.0
 40
0.5
 41
0.5
  0
VERTEX
  8
0
 10
86.0955
 20
111.104
 30
0.0
 40
0.5
 41
0.5
  0
VERTEX
  8
0
 10
86.0955
 20
113.428
 30
0.0
 40
0.5
 41
0.5
  0
VERTEX
  8
0
 10
86.5654
 20
113.428
 30
0.0
 40
0.5
 41
0.5
  0
SEQEND
  8
0
  0
POLYLINE
8
0
 62
     0
 66
     1
 10
0
 20
0
 30
0.0
 70
     1
 40
0.5
 41
0.5
  0
VERTEX
  8
0
 10
86.3306
 20
114.803
 30
0.0
 40
0.5
 41
0.5
  0
VERTEX
  8
0
 10
86.5454
 20
114.703
 30
0.0
 40
0.5
 41
0.5
  0
VERTEX
  8
0
 10
86.6155
 20
114.523
 30
0.0
 40
0.5
 41
0.5
  0
VERTEX
  8
0
 10
86.6155
 20
114.516
 30
0.0
 40
0.5
 41
0.5
  0
VERTEX
  8
0
 10
86.6155
 20
114.509
 30
0.0
 40
0.5
 41
0.5
  0
VERTEX
  8
0
 10
86.533
 20
114.303
 30
0.0
 40
0.5
 41
0.5
  0
VERTEX
  8
0
 10
86.3306
 20
114.208
 30
0.0
 40
0.5
 41
0.5
  0
VERTEX
  8
0
 10
86.1106
 20
114.298
 30
0.0
 40
0.5
 41
0.5
  0
VERTEX
  8
0
 10
86.0354
 20
114.499
 30
0.0
 40
0.5
 41
0.5
  0
VERTEX
  8
0
 10
86.1055
 20
114.706
 30
0.0
 40
0.5
 41
0.5
  0
VERTEX
  8
0
 10
86.3306
 20
114.798
 30
0.0
 40
0.5
 41
0.5
  0
VERTEX
  8
0
 10
86.3306
 20
114.803
 30
0.0
 40
0.5
 41
0.5
  0
SEQEND
  8
0
  0
POLYLINE
8
0
 62
     0
 66
     1
 10
0
 20
0
 30
0.0
 70
     1
 40
0.5
 41
0.5
  0
VERTEX
  8
0
 10
87.7039
 20
113.428
 30
0.0
 40
0.5
 41
0.5
  0
VERTEX
  8
0
 10
87.7039
 20
113.114
 30
0.0
 40
0.5
 41
0.5
  0
VERTEX
  8
0
 10
87.8438
 20
113.246
 30
0.0
 40
0.5
 41
0.5
  0
VERTEX
  8
0
 10
87.9636
 20
113.348
 30
0.0
 40
0.5
 41
0.5
  0
VERTEX
  8
0
 10
88.1611
 20
113.446
 30
0.0
 40
0.5
 41
0.5
  0
VERTEX
  8
0
 10
88.4487
 20
113.499
 30
0.0
 40
0.5
 41
0.5
  0
VERTEX
  8
0
 10
88.5586
 20
113.493
 30
0.0
 40
0.5
 41
0.5
  0
VERTEX
  8
0
 10
88.6736
 20
113.473
 30
0.0
 40
0.5
 41
0.5
  0
VERTEX
  8
0
 10
89.0886
 20
113.233
 30
0.0
 40
0.5
 41
0.5
  0
VERTEX
  8
0
 10
89.2788
 20
112.673
 30
0.0
 40
0.5
 41
0.5
  0
VERTEX
  8
0
 10
89.2788
 20
111.104
 30
0.0
 40
0.5
 41
0.5
  0
VERTEX
  8
0
 10
88.8037
 20
111.104
 30
0.0
 40
0.5
 41
0.5
  0
VERTEX
  8
0
 10
88.8037
 20
112.678
 30
0.0
 40
0.5
 41
0.5
  0
VERTEX
  8
0
 10
88.6736
 20
112.963
 30
0.0
 40
0.5
 41
0.5
  0
VERTEX
  8
0
 10
88.3838
 20
113.098
 30
0.0
 40
0.5
 41
0.5
  0
VERTEX
  8
0
 10
88.3386
 20
113.106
 30
0.0
 40
0.5
 41
0.5
  0
VERTEX
  8
0
 10
88.2937
 20
113.108
 30
0.0
 40
0.5
 41
0.5
  0
VERTEX
  8
0
 10
88.2861
 20
113.108
 30
0.0
 40
0.5
 41
0.5
  0
VERTEX
  8
0
 10
88.2788
 20
113.108
 30
0.0
 40
0.5
 41
0.5
  0
VERTEX
  8
0
 10
87.9087
 20
112.943
 30
0.0
 40
0.5
 41
0.5
  0
VERTEX
  8
0
 10
87.7388
 20
112.438
 30
0.0
 40
0.5
 41
0.5
  0
VERTEX
  8
0
 10
87.7388
 20
111.104
 30
0.0
 40
0.5
 41
0.5
  0
VERTEX
  8
0
 10
87.2688
 20
111.104
 30
0.0
 40
0.5
 41
0.5
  0
VERTEX
  8
0
 10
87.2688
 20
113.428
 30
0.0
 40
0.5
 41
0.5
  0
VERTEX
  8
0
 10
87.7039
 20
113.428
 30
0.0
 40
0.5
 41
0.5
  0
SEQEND
  8
0
  0
POLYLINE
8
0
 62
     0
 66
     1
 10
0
 20
0
 30
0.0
 70
     1
 40
0.5
 41
0.5
  0
VERTEX
  8
0
 10
91.5215
 20
111.888
 30
0.0
 40
0.5
 41
0.5
  0
VERTEX
  8
0
 10
91.9116
 20
111.693
 30
0.0
 40
0.5
 41
0.5
  0
VERTEX
  8
0
 10
91.854
 20
111.588
 30
0.0
 40
0.5
 41
0.5
  0
VERTEX
  8
0
 10
91.7866
 20
111.483
 30
0.0
 40
0.5
 41
0.5
  0
VERTEX
  8
0
 10
91.4417
 20
111.166
 30
0.0
 40
0.5
 41
0.5
  0
VERTEX
  8
0
 10
90.8115
 20
111.023
 30
0.0
 40
0.5
 41
0.5
  0
VERTEX
  8
0
 10
90.0442
 20
111.378
 30
0.0
 40
0.5
 41
0.5
  0
VERTEX
  8
0
 10
89.7117
 20
112.163
 30
0.0
 40
0.5
 41
0.5
  0
VERTEX
  8
0
 10
89.709
 20
112.223
 30
0.0
 40
0.5
 41
0.5
  0
VERTEX
  8
0
 10
89.7065
 20
112.283
 30
0.0
 40
0.5
 41
0.5
  0
VERTEX
  8
0
 10
89.7065
 20
112.321
 30
0.0
 40
0.5
 41
0.5
  0
VERTEX
  8
0
 10
89.7065
 20
112.358
 30
0.0
 40
0.5
 41
0.5
  0
VERTEX
  8
0
 10
90.0142
 20
113.206
 30
0.0
 40
0.5
 41
0.5
  0
VERTEX
  8
0
 10
90.8516
 20
113.578
 30
0.0
 40
0.5
 41
0.5
  0
VERTEX
  8
0
 10
91.5791
 20
113.306
 30
0.0
 40
0.5
 41
0.5
  0
VERTEX
  8
0
 10
91.9065
 20
112.708
 30
0.0
 40
0.5
 41
0.5
  0
VERTEX
  8
0
 10
91.9441
 20
112.506
 30
0.0
 40
0.5
 41
0.5
  0
VERTEX
  8
0
 10
91.9565
 20
112.313
 30
0.0
 40
0.5
 41
0.5
  0
VERTEX
  8
0
 10
91.9565
 20
112.253
 30
0.0
 40
0.5
 41
0.5
  0
VERTEX
  8
0
 10
91.9517
 20
112.198
 30
0.0
 40
0.5
 41
0.5
  0
VERTEX
  8
0
 10
90.1816
 20
112.203
 30
0.0
 40
0.5
 41
0.5
  0
VERTEX
  8
0
 10
90.3892
 20
111.666
 30
0.0
 40
0.5
 41
0.5
  0
VERTEX
  8
0
 10
90.8916
 20
111.453
 30
0.0
 40
0.5
 41
0.5
  0
VERTEX
  8
0
 10
90.9641
 20
111.458
 30
0.0
 40
0.5
 41
0.5
  0
VERTEX
  8
0
 10
91.0415
 20
111.473
 30
0.0
 40
0.5
 41
0.5
  0
VERTEX
  8
0
 10
91.3191
 20
111.614
 30
0.0
 40
0.5
 41
0.5
  0
VERTEX
  8
0
 10
91.5215
 20
111.884
 30
0.0
 40
0.5
 41
0.5
  0
VERTEX
  8
0
 10
91.5215
 20
111.888
 30
0.0
 40
0.5
 41
0.5
  0
SEQEND
  8
0
  0
POLYLINE
8
0
 62
     0
 66
     1
 10
0
 20
0
 30
0.0
 70
     1
 40
0.5
 41
0.5
  0
VERTEX
  8
0
 10
91.4817
 20
112.558
 30
0.0
 40
0.5
 41
0.5
  0
VERTEX
  8
0
 10
91.2842
 20
113.001
 30
0.0
 40
0.5
 41
0.5
  0
VERTEX
  8
0
 10
90.8516
 20
113.183
 30
0.0
 40
0.5
 41
0.5
  0
VERTEX
  8
0
 10
90.7366
 20
113.171
 30
0.0
 40
0.5
 41
0.5
  0
VERTEX
  8
0
 10
90.6167
 20
113.134
 30
0.0
 40
0.5
 41
0.5
  0
VERTEX
  8
0
 10
90.3467
 20
112.941
 30
0.0
 40
0.5
 41
0.5
  0
VERTEX
  8
0
 10
90.1816
 20
112.553
 30
0.0
 40
0.5
 41
0.5
  0
VERTEX
  8
0
 10
91.4817
 20
112.558
 30
0.0
 40
0.5
 41
0.5
  0
SEQEND
  8
0
  0
POLYLINE
8
0
 62
     0
 66
     1
 10
0
 20
0
 30
0.0
 70
     1
 40
0.5
 41
0.5
  0
VERTEX
  8
0
 10
93.3728
 20
112.913
 30
0.0
 40
0.5
 41
0.5
  0
VERTEX
  8
0
 10
93.3728
 20
112.519
 30
0.0
 40
0.5
 41
0.5
  0
VERTEX
  8
0
 10
92.2678
 20
112.519
 30
0.0
 40
0.5
 41
0.5
  0
VERTEX
  8
0
 10
92.2678
 20
112.913
 30
0.0
 40
0.5
 41
0.5
  0
VERTEX
  8
0
 10
93.3728
 20
112.913
 30
0.0
 40
0.5
 41
0.5
  0
SEQEND
  8
0
  0
POLYLINE
8
0
 62
     0
 66
     1
 10
0
 20
0
 30
0.0
 70
     1
 40
0.5
 41
0.5
  0
VERTEX
  8
0
 10
95.6609
 20
111.733
 30
0.0
 40
0.5
 41
0.5
  0
VERTEX
  8
0
 10
95.6609
 20
111.144
 30
0.0
 40
0.5
 41
0.5
  0
VERTEX
  8
0
 10
95.3684
 20
111.038
 30
0.0
 40
0.5
 41
0.5
  0
VERTEX
  8
0
 10
95.0508
 20
111.003
 30
0.0
 40
0.5
 41
0.5
  0
VERTEX
  8
0
 10
95.0107
 20
111.003
 30
0.0
 40
0.5
 41
0.5
  0
VERTEX
  8
0
 10
94.9707
 20
111.003
 30
0.0
 40
0.5
 41
0.5
  0
VERTEX
  8
0
 10
94.1458
 20
111.328
 30
0.0
 40
0.5
 41
0.5
  0
VERTEX
  8
0
 10
93.7708
 20
112.239
 30
0.0
 40
0.5
 41
0.5
  0
VERTEX
  8
0
 10
94.1533
 20
113.213
 30
0.0
 40
0.5
 41
0.5
  0
VERTEX
  8
0
 10
95.0208
 20
113.533
 30
0.0
 40
0.5
 41
0.5
  0
VERTEX
  8
0
 10
95.3657
 20
113.499
 30
0.0
 40
0.5
 41
0.5
  0
VERTEX
  8
0
 10
95.6958
 20
113.384
 30
0.0
 40
0.5
 41
0.5
  0
VERTEX
  8
0
 10
95.6958
 20
112.798
 30
0.0
 40
0.5
 41
0.5
  0
VERTEX
  8
0
 10
95.5684
 20
112.926
 30
0.0
 40
0.5
 41
0.5
  0
VERTEX
  8
0
 10
95.4358
 20
113.013
 30
0.0
 40
0.5
 41
0.5
  0
VERTEX
  8
0
 10
95.1731
 20
113.096
 30
0.0
 40
0.5
 41
0.5
  0
VERTEX
  8
0
 10
94.9907
 20
113.108
 30
0.0
 40
0.5
 41
0.5
  0
VERTEX
  8
0
 10
94.4182
 20
112.826
 30
0.0
 40
0.5
 41
0.5
  0
VERTEX
  8
0
 10
94.2207
 20
112.278
 30
0.0
 40
0.5
 41
0.5
  0
VERTEX
  8
0
 10
94.2207
 20
112.271
 30
0.0
 40
0.5
 41
0.5
  0
VERTEX
  8
0
 10
94.2207
 20
112.263
 30
0.0
 40
0.5
 41
0.5
  0
VERTEX
  8
0
 10
94.4082
 20
111.706
 30
0.0
 40
0.5
 41
0.5
  0
VERTEX
  8
0
 10
94.9558
 20
111.453
 30
0.0
 40
0.5
 41
0.5
  0
VERTEX
  8
0
 10
94.9734
 20
111.453
 30
0.0
 40
0.5
 41
0.5
  0
VERTEX
  8
0
 10
94.9907
 20
111.453
 30
0.0
 40
0.5
 41
0.5
  0
VERTEX
  8
0
 10
95.2031
 20
111.476
 30
0.0
 40
0.5
 41
0.5
  0
VERTEX
  8
0
 10
95.5508
 20
111.638
 30
0.0
 40
0.5
 41
0.5
  0
VERTEX
  8
0
 10
95.6082
 20
111.681
 30
0.0
 40
0.5
 41
0.5
  0
VERTEX
  8
0
 10
95.6609
 20
111.729
 30
0.0
 40
0.5
 41
0.5
  0
VERTEX
  8
0
 10
95.6609
 20
111.733
 30
0.0
 40
0.5
 41
0.5
  0
SEQEND
  8
0
  0
POLYLINE
8
0
 62
     0
 66
     1
 10
0
 20
0
 30
0.0
 70
     1
 40
0.5
 41
0.5
  0
VERTEX
  8
0
 10
95.9768
 20
112.323
 30
0.0
 40
0.5
 41
0.5
  0
VERTEX
  8
0
 10
95.9795
 20
112.411
 30
0.0
 40
0.5
 41
0.5
  0
VERTEX
  8
0
 10
95.9919
 20
112.509
 30
0.0
 40
0.5
 41
0.5
  0
VERTEX
  8
0
 10
96.3545
 20
113.188
 30
0.0
 40
0.5
 41
0.5
  0
VERTEX
  8
0
 10
97.2368
 20
113.499
 30
0.0
 40
0.5
 41
0.5
  0
VERTEX
  8
0
 10
97.4495
 20
113.483
 30
0.0
 40
0.5
 41
0.5
  0
VERTEX
  8
0
 10
97.6819
 20
113.433
 30
0.0
 40
0.5
 41
0.5
  0
VERTEX
  8
0
 10
98.2268
 20
113.104
 30
0.0
 40
0.5
 41
0.5
  0
VERTEX
  8
0
 10
98.4968
 20
112.398
 30
0.0
 40
0.5
 41
0.5
  0
VERTEX
  8
0
 10
98.4968
 20
112.384
 30
0.0
 40
0.5
 41
0.5
  0
VERTEX
  8
0
 10
98.4968
 20
112.368
 30
0.0
 40
0.5
 41
0.5
  0
VERTEX
  8
0
 10
98.4968
 20
112.351
 30
0.0
 40
0.5
 41
0.5
  0
VERTEX
  8
0
 10
98.4968
 20
112.333
 30
0.0
 40
0.5
 41
0.5
  0
VERTEX
  8
0
 10
98.4895
 20
112.208
 30
0.0
 40
0.5
 41
0.5
  0
VERTEX
  8
0
 10
98.4719
 20
112.083
 30
0.0
 40
0.5
 41
0.5
  0
VERTEX
  8
0
 10
98.0818
 20
111.381
 30
0.0
 40
0.5
 41
0.5
  0
VERTEX
  8
0
 10
97.2368
 20
111.063
 30
0.0
 40
0.5
 41
0.5
  0
VERTEX
  8
0
 10
96.407
 20
111.298
 30
0.0
 40
0.5
 41
0.5
  0
VERTEX
  8
0
 10
96.052
 20
111.818
 30
0.0
 40
0.5
 41
0.5
  0
VERTEX
  8
0
 10
95.9919
 20
112.083
 30
0.0
 40
0.5
 41
0.5
  0
VERTEX
  8
0
 10
95.9768
 20
112.318
 30
0.0
 40
0.5
 41
0.5
  0
VERTEX
  8
0
 10
95.9768
 20
112.323
 30
0.0
 40
0.5
 41
0.5
  0
SEQEND
  8
0
  0
POLYLINE
8
0
 62
     0
 66
     1
 10
0
 20
0
 30
0.0
 70
     1
 40
0.5
 41
0.5
  0
VERTEX
  8
0
 10
98.022
 20
112.364
 30
0.0
 40
0.5
 41
0.5
  0
VERTEX
  8
0
 10
98.002
 20
112.458
 30
0.0
 40
0.5
 41
0.5
  0
VERTEX
  8
0
 10
97.9019
 20
112.713
 30
0.0
 40
0.5
 41
0.5
  0
VERTEX
  8
0
 10
97.6643
 20
112.958
 30
0.0
 40
0.5
 41
0.5
  0
VERTEX
  8
0
 10
97.2368
 20
113.068
 30
0.0
 40
0.5
 41
0.5
  0
VERTEX
  8
0
 10
96.6194
 20
112.821
 30
0.0
 40
0.5
 41
0.5
  0
VERTEX
  8
0
 10
96.447
 20
112.278
 30
0.0
 40
0.5
 41
0.5
  0
VERTEX
  8
0
 10
96.6643
 20
111.753
 30
0.0
 40
0.5
 41
0.5
  0
VERTEX
  8
0
 10
97.0818
 20
111.519
 30
0.0
 40
0.5
 41
0.5
  0
VERTEX
  8
0
 10
97.177
 20
111.499
 30
0.0
 40
0.5
 41
0.5
  0
VERTEX
  8
0
 10
97.272
 20
111.493
 30
0.0
 40
0.5
 41
0.5
  0
VERTEX
  8
0
 10
97.7844
 20
111.713
 30
0.0
 40
0.5
 41
0.5
  0
VERTEX
  8
0
 10
98.022
 20
112.198
 30
0.0
 40
0.5
 41
0.5
  0
VERTEX
  8
0
 10
98.0244
 20
112.246
 30
0.0
 40
0.5
 41
0.5
  0
VERTEX
  8
0
 10
98.0269
 20
112.288
 30
0.0
 40
0.5
 41
0.5
  0
VERTEX
  8
0
 10
98.0269
 20
112.306
 30
0.0
 40
0.5
 41
0.5
  0
VERTEX
  8
0
 10
98.0269
 20
112.323
 30
0.0
 40
0.5
 41
0.5
  0
VERTEX
  8
0
 10
98.022
 20
112.341
 30
0.0
 40
0.5
 41
0.5
  0
VERTEX
  8
0
 10
98.022
 20
112.358
 30
0.0
 40
0.5
 41
0.5
  0
VERTEX
  8
0
 10
98.022
 20
112.364
 30
0.0
 40
0.5
 41
0.5
  0
SEQEND
  8
0
  0
POLYLINE
8
0
 62
     0
 66
     1
 10
0
 20
0
 30
0.0
 70
     1
 40
0.5
 41
0.5
  0
VERTEX
  8
0
 10
99.3223
 20
113.428
 30
0.0
 40
0.5
 41
0.5
  0
VERTEX
  8
0
 10
99.3223
 20
113.114
 30
0.0
 40
0.5
 41
0.5
  0
VERTEX
  8
0
 10
99.4624
 20
113.246
 30
0.0
 40
0.5
 41
0.5
  0
VERTEX
  8
0
 10
99.5823
 20
113.348
 30
0.0
 40
0.5
 41
0.5
  0
VERTEX
  8
0
 10
99.7798
 20
113.446
 30
0.0
 40
0.5
 41
0.5
  0
VERTEX
  8
0
 10
100.067
 20
113.499
 30
0.0
 40
0.5
 41
0.5
  0
VERTEX
  8
0
 10
100.177
 20
113.493
 30
0.0
 40
0.5
 41
0.5
  0
VERTEX
  8
0
 10
100.292
 20
113.473
 30
0.0
 40
0.5
 41
0.5
  0
VERTEX
  8
0
 10
100.707
 20
113.233
 30
0.0
 40
0.5
 41
0.5
  0
VERTEX
  8
0
 10
100.897
 20
112.673
 30
0.0
 40
0.5
 41
0.5
  0
VERTEX
  8
0
 10
100.897
 20
111.104
 30
0.0
 40
0.5
 41
0.5
  0
VERTEX
  8
0
 10
100.422
 20
111.104
 30
0.0
 40
0.5
 41
0.5
  0
VERTEX
  8
0
 10
100.422
 20
112.678
 30
0.0
 40
0.5
 41
0.5
  0
VERTEX
  8
0
 10
100.292
 20
112.963
 30
0.0
 40
0.5
 41
0.5
  0
VERTEX
  8
0
 10
100.002
 20
113.098
 30
0.0
 40
0.5
 41
0.5
  0
VERTEX
  8
0
 10
99.9573
 20
113.106
 30
0.0
 40
0.5
 41
0.5
  0
VERTEX
  8
0
 10
99.9124
 20
113.108
 30
0.0
 40
0.5
 41
0.5
  0
VERTEX
  8
0
 10
99.9048
 20
113.108
 30
0.0
 40
0.5
 41
0.5
  0
VERTEX
  8
0
 10
99.8972
 20
113.108
 30
0.0
 40
0.5
 41
0.5
  0
VERTEX
  8
0
 10
99.5273
 20
112.943
 30
0.0
 40
0.5
 41
0.5
  0
VERTEX
  8
0
 10
99.3574
 20
112.438
 30
0.0
 40
0.5
 41
0.5
  0
VERTEX
  8
0
 10
99.3574
 20
111.104
 30
0.0
 40
0.5
 41
0.5
  0
VERTEX
  8
0
 10
98.8872
 20
111.104
 30
0.0
 40
0.5
 41
0.5
  0
VERTEX
  8
0
 10
98.8872
 20
113.428
 30
0.0
 40
0.5
 41
0.5
  0
VERTEX
  8
0
 10
99.3223
 20
113.428
 30
0.0
 40
0.5
 41
0.5
  0
SEQEND
  8
0
  0
POLYLINE
8
0
 62
     0
 66
     1
 10
0
 20
0
 30
0.0
 70
     1
 40
0.5
 41
0.5
  0
VERTEX
  8
0
 10
103.455
 20
113.428
 30
0.0
 40
0.5
 41
0.5
  0
VERTEX
  8
0
 10
102.27
 20
111.023
 30
0.0
 40
0.5
 41
0.5
  0
VERTEX
  8
0
 10
101.09
 20
113.428
 30
0.0
 40
0.5
 41
0.5
  0
VERTEX
  8
0
 10
101.605
 20
113.428
 30
0.0
 40
0.5
 41
0.5
  0
VERTEX
  8
0
 10
102.27
 20
111.969
 30
0.0
 40
0.5
 41
0.5
  0
VERTEX
  8
0
 10
102.94
 20
113.428
 30
0.0
 40
0.5
 41
0.5
  0
VERTEX
  8
0
 10
103.455
 20
113.428
 30
0.0
 40
0.5
 41
0.5
  0
SEQEND
  8
0
  0
POLYLINE
8
0
 62
     0
 66
     1
 10
0
 20
0
 30
0.0
 70
     1
 40
0.5
 41
0.5
  0
VERTEX
  8
0
 10
105.385
 20
111.888
 30
0.0
 40
0.5
 41
0.5
  0
VERTEX
  8
0
 10
105.776
 20
111.693
 30
0.0
 40
0.5
 41
0.5
  0
VERTEX
  8
0
 10
105.718
 20
111.588
 30
0.0
 40
0.5
 41
0.5
  0
VERTEX
  8
0
 10
105.651
 20
111.483
 30
0.0
 40
0.5
 41
0.5
  0
VERTEX
  8
0
 10
105.306
 20
111.166
 30
0.0
 40
0.5
 41
0.5
  0
VERTEX
  8
0
 10
104.676
 20
111.023
 30
0.0
 40
0.5
 41
0.5
  0
VERTEX
  8
0
 10
103.908
 20
111.378
 30
0.0
 40
0.5
 41
0.5
  0
VERTEX
  8
0
 10
103.576
 20
112.163
 30
0.0
 40
0.5
 41
0.5
  0
VERTEX
  8
0
 10
103.573
 20
112.223
 30
0.0
 40
0.5
 41
0.5
  0
VERTEX
  8
0
 10
103.571
 20
112.283
 30
0.0
 40
0.5
 41
0.5
  0
VERTEX
  8
0
 10
103.571
 20
112.321
 30
0.0
 40
0.5
 41
0.5
  0
VERTEX
  8
0
 10
103.571
 20
112.358
 30
0.0
 40
0.5
 41
0.5
  0
VERTEX
  8
0
 10
103.878
 20
113.206
 30
0.0
 40
0.5
 41
0.5
  0
VERTEX
  8
0
 10
104.716
 20
113.578
 30
0.0
 40
0.5
 41
0.5
  0
VERTEX
  8
0
 10
105.443
 20
113.306
 30
0.0
 40
0.5
 41
0.5
  0
VERTEX
  8
0
 10
105.771
 20
112.708
 30
0.0
 40
0.5
 41
0.5
  0
VERTEX
  8
0
 10
105.808
 20
112.506
 30
0.0
 40
0.5
 41
0.5
  0
VERTEX
  8
0
 10
105.821
 20
112.313
 30
0.0
 40
0.5
 41
0.5
  0
VERTEX
  8
0
 10
105.821
 20
112.253
 30
0.0
 40
0.5
 41
0.5
  0
VERTEX
  8
0
 10
105.816
 20
112.198
 30
0.0
 40
0.5
 41
0.5
  0
VERTEX
  8
0
 10
104.046
 20
112.203
 30
0.0
 40
0.5
 41
0.5
  0
VERTEX
  8
0
 10
104.253
 20
111.666
 30
0.0
 40
0.5
 41
0.5
  0
VERTEX
  8
0
 10
104.756
 20
111.453
 30
0.0
 40
0.5
 41
0.5
  0
VERTEX
  8
0
 10
104.828
 20
111.458
 30
0.0
 40
0.5
 41
0.5
  0
VERTEX
  8
0
 10
104.906
 20
111.473
 30
0.0
 40
0.5
 41
0.5
  0
VERTEX
  8
0
 10
105.183
 20
111.614
 30
0.0
 40
0.5
 41
0.5
  0
VERTEX
  8
0
 10
105.385
 20
111.884
 30
0.0
 40
0.5
 41
0.5
  0
VERTEX
  8
0
 10
105.385
 20
111.888
 30
0.0
 40
0.5
 41
0.5
  0
SEQEND
  8
0
  0
POLYLINE
8
0
 62
     0
 66
     1
 10
0
 20
0
 30
0.0
 70
     1
 40
0.5
 41
0.5
  0
VERTEX
  8
0
 10
105.346
 20
112.558
 30
0.0
 40
0.5
 41
0.5
  0
VERTEX
  8
0
 10
105.148
 20
113.001
 30
0.0
 40
0.5
 41
0.5
  0
VERTEX
  8
0
 10
104.716
 20
113.183
 30
0.0
 40
0.5
 41
0.5
  0
VERTEX
  8
0
 10
104.601
 20
113.171
 30
0.0
 40
0.5
 41
0.5
  0
VERTEX
  8
0
 10
104.481
 20
113.134
 30
0.0
 40
0.5
 41
0.5
  0
VERTEX
  8
0
 10
104.211
 20
112.941
 30
0.0
 40
0.5
 41
0.5
  0
VERTEX
  8
0
 10
104.046
 20
112.553
 30
0.0
 40
0.5
 41
0.5
  0
VERTEX
  8
0
 10
105.346
 20
112.558
 30
0.0
 40
0.5
 41
0.5
  0
SEQEND
  8
0
  0
POLYLINE
8
0
 62
     0
 66
     1
 10
0
 20
0
 30
0.0
 70
     1
 40
0.5
 41
0.5
  0
VERTEX
  8
0
 10
106.642
 20
113.073
 30
0.0
 40
0.5
 41
0.5
  0
VERTEX
  8
0
 10
106.942
 20
113.371
 30
0.0
 40
0.5
 41
0.5
  0
VERTEX
  8
0
 10
107.277
 20
113.469
 30
0.0
 40
0.5
 41
0.5
  0
VERTEX
  8
0
 10
107.469
 20
113.446
 30
0.0
 40
0.5
 41
0.5
  0
VERTEX
  8
0
 10
107.667
 20
113.384
 30
0.0
 40
0.5
 41
0.5
  0
VERTEX
  8
0
 10
107.432
 20
112.953
 30
0.0
 40
0.5
 41
0.5
  0
VERTEX
  8
0
 10
107.334
 20
113.006
 30
0.0
 40
0.5
 41
0.5
  0
VERTEX
  8
0
 10
107.232
 20
113.043
 30
0.0
 40
0.5
 41
0.5
  0
VERTEX
  8
0
 10
107.182
 20
113.051
 30
0.0
 40
0.5
 41
0.5
  0
VERTEX
  8
0
 10
107.132
 20
113.053
 30
0.0
 40
0.5
 41
0.5
  0
VERTEX
  8
0
 10
106.809
 20
112.913
 30
0.0
 40
0.5
 41
0.5
  0
VERTEX
  8
0
 10
106.642
 20
112.479
 30
0.0
 40
0.5
 41
0.5
  0
VERTEX
  8
0
 10
106.642
 20
111.104
 30
0.0
 40
0.5
 41
0.5
  0
VERTEX
  8
0
 10
106.172
 20
111.104
 30
0.0
 40
0.5
 41
0.5
  0
VERTEX
  8
0
 10
106.172
 20
113.428
 30
0.0
 40
0.5
 41
0.5
  0
VERTEX
  8
0
 10
106.642
 20
113.428
 30
0.0
 40
0.5
 41
0.5
  0
VERTEX
  8
0
 10
106.642
 20
113.073
 30
0.0
 40
0.5
 41
0.5
  0
SEQEND
  8
0
  0
POLYLINE
8
0
 62
     0
 66
     1
 10
0
 20
0
 30
0.0
 70
     1
 40
0.5
 41
0.5
  0
VERTEX
  8
0
 10
108.104
 20
114.293
 30
0.0
 40
0.5
 41
0.5
  0
VERTEX
  8
0
 10
108.534
 20
114.293
 30
0.0
 40
0.5
 41
0.5
  0
VERTEX
  8
0
 10
108.534
 20
113.428
 30
0.0
 40
0.5
 41
0.5
  0
VERTEX
  8
0
 10
109.009
 20
113.428
 30
0.0
 40
0.5
 41
0.5
  0
VERTEX
  8
0
 10
109.009
 20
112.993
 30
0.0
 40
0.5
 41
0.5
  0
VERTEX
  8
0
 10
108.534
 20
112.993
 30
0.0
 40
0.5
 41
0.5
  0
VERTEX
  8
0
 10
108.534
 20
111.104
 30
0.0
 40
0.5
 41
0.5
  0
VERTEX
  8
0
 10
108.104
 20
111.104
 30
0.0
 40
0.5
 41
0.5
  0
VERTEX
  8
0
 10
108.104
 20
112.993
 30
0.0
 40
0.5
 41
0.5
  0
VERTEX
  8
0
 10
107.829
 20
112.993
 30
0.0
 40
0.5
 41
0.5
  0
VERTEX
  8
0
 10
107.829
 20
113.428
 30
0.0
 40
0.5
 41
0.5
  0
VERTEX
  8
0
 10
108.104
 20
113.428
 30
0.0
 40
0.5
 41
0.5
  0
VERTEX
  8
0
 10
108.104
 20
114.293
 30
0.0
 40
0.5
 41
0.5
  0
SEQEND
  8
0
  0
POLYLINE
8
0
 62
     0
 66
     1
 10
0
 20
0
 30
0.0
 70
     1
 40
0.5
 41
0.5
  0
VERTEX
  8
0
 10
110.854
 20
111.888
 30
0.0
 40
0.5
 41
0.5
  0
VERTEX
  8
0
 10
111.244
 20
111.693
 30
0.0
 40
0.5
 41
0.5
  0
VERTEX
  8
0
 10
111.187
 20
111.588
 30
0.0
 40
0.5
 41
0.5
  0
VERTEX
  8
0
 10
111.119
 20
111.483
 30
0.0
 40
0.5
 41
0.5
  0
VERTEX
  8
0
 10
110.774
 20
111.166
 30
0.0
 40
0.5
 41
0.5
  0
VERTEX
  8
0
 10
110.144
 20
111.023
 30
0.0
 40
0.5
 41
0.5
  0
VERTEX
  8
0
 10
109.377
 20
111.378
 30
0.0
 40
0.5
 41
0.5
  0
VERTEX
  8
0
 10
109.044
 20
112.163
 30
0.0
 40
0.5
 41
0.5
  0
VERTEX
  8
0
 10
109.042
 20
112.223
 30
0.0
 40
0.5
 41
0.5
  0
VERTEX
  8
0
 10
109.039
 20
112.283
 30
0.0
 40
0.5
 41
0.5
  0
VERTEX
  8
0
 10
109.039
 20
112.321
 30
0.0
 40
0.5
 41
0.5
  0
VERTEX
  8
0
 10
109.039
 20
112.358
 30
0.0
 40
0.5
 41
0.5
  0
VERTEX
  8
0
 10
109.347
 20
113.206
 30
0.0
 40
0.5
 41
0.5
  0
VERTEX
  8
0
 10
110.184
 20
113.578
 30
0.0
 40
0.5
 41
0.5
  0
VERTEX
  8
0
 10
110.912
 20
113.306
 30
0.0
 40
0.5
 41
0.5
  0
VERTEX
  8
0
 10
111.239
 20
112.708
 30
0.0
 40
0.5
 41
0.5
  0
VERTEX
  8
0
 10
111.277
 20
112.506
 30
0.0
 40
0.5
 41
0.5
  0
VERTEX
  8
0
 10
111.289
 20
112.313
 30
0.0
 40
0.5
 41
0.5
  0
VERTEX
  8
0
 10
111.289
 20
112.253
 30
0.0
 40
0.5
 41
0.5
  0
VERTEX
  8
0
 10
111.284
 20
112.198
 30
0.0
 40
0.5
 41
0.5
  0
VERTEX
  8
0
 10
109.514
 20
112.203
 30
0.0
 40
0.5
 41
0.5
  0
VERTEX
  8
0
 10
109.722
 20
111.666
 30
0.0
 40
0.5
 41
0.5
  0
VERTEX
  8
0
 10
110.224
 20
111.453
 30
0.0
 40
0.5
 41
0.5
  0
VERTEX
  8
0
 10
110.297
 20
111.458
 30
0.0
 40
0.5
 41
0.5
  0
VERTEX
  8
0
 10
110.374
 20
111.473
 30
0.0
 40
0.5
 41
0.5
  0
VERTEX
  8
0
 10
110.652
 20
111.614
 30
0.0
 40
0.5
 41
0.5
  0
VERTEX
  8
0
 10
110.854
 20
111.884
 30
0.0
 40
0.5
 41
0.5
  0
VERTEX
  8
0
 10
110.854
 20
111.888
 30
0.0
 40
0.5
 41
0.5
  0
SEQEND
  8
0
  0
POLYLINE
8
0
 62
     0
 66
     1
 10
0
 20
0
 30
0.0
 70
     1
 40
0.5
 41
0.5
  0
VERTEX
  8
0
 10
110.814
 20
112.558
 30
0.0
 40
0.5
 41
0.5
  0
VERTEX
  8
0
 10
110.617
 20
113.001
 30
0.0
 40
0.5
 41
0.5
  0
VERTEX
  8
0
 10
110.184
 20
113.183
 30
0.0
 40
0.5
 41
0.5
  0
VERTEX
  8
0
 10
110.069
 20
113.171
 30
0.0
 40
0.5
 41
0.5
  0
VERTEX
  8
0
 10
109.949
 20
113.134
 30
0.0
 40
0.5
 41
0.5
  0
VERTEX
  8
0
 10
109.679
 20
112.941
 30
0.0
 40
0.5
 41
0.5
  0
VERTEX
  8
0
 10
109.514
 20
112.553
 30
0.0
 40
0.5
 41
0.5
  0
VERTEX
  8
0
 10
110.814
 20
112.558
 30
0.0
 40
0.5
 41
0.5
  0
SEQEND
  8
0
  0
POLYLINE
8
0
 62
     0
 66
     1
 10
0
 20
0
 30
0.0
 70
     1
 40
0.5
 41
0.5
  0
VERTEX
  8
0
 10
112.11
 20
113.073
 30
0.0
 40
0.5
 41
0.5
  0
VERTEX
  8
0
 10
112.41
 20
113.371
 30
0.0
 40
0.5
 41
0.5
  0
VERTEX
  8
0
 10
112.745
 20
113.469
 30
0.0
 40
0.5
 41
0.5
  0
VERTEX
  8
0
 10
112.938
 20
113.446
 30
0.0
 40
0.5
 41
0.5
  0
VERTEX
  8
0
 10
113.135
 20
113.384
 30
0.0
 40
0.5
 41
0.5
  0
VERTEX
  8
0
 10
112.9
 20
112.953
 30
0.0
 40
0.5
 41
0.5
  0
VERTEX
  8
0
 10
112.803
 20
113.006
 30
0.0
 40
0.5
 41
0.5
  0
VERTEX
  8
0
 10
112.7
 20
113.043
 30
0.0
 40
0.5
 41
0.5
  0
VERTEX
  8
0
 10
112.65
 20
113.051
 30
0.0
 40
0.5
 41
0.5
  0
VERTEX
  8
0
 10
112.6
 20
113.053
 30
0.0
 40
0.5
 41
0.5
  0
VERTEX
  8
0
 10
112.278
 20
112.913
 30
0.0
 40
0.5
 41
0.5
  0
VERTEX
  8
0
 10
112.11
 20
112.479
 30
0.0
 40
0.5
 41
0.5
  0
VERTEX
  8
0
 10
112.11
 20
111.104
 30
0.0
 40
0.5
 41
0.5
  0
VERTEX
  8
0
 10
111.64
 20
111.104
 30
0.0
 40
0.5
 41
0.5
  0
VERTEX
  8
0
 10
111.64
 20
113.428
 30
0.0
 40
0.5
 41
0.5
  0
VERTEX
  8
0
 10
112.11
 20
113.428
 30
0.0
 40
0.5
 41
0.5
  0
VERTEX
  8
0
 10
112.11
 20
113.073
 30
0.0
 40
0.5
 41
0.5
  0
SEQEND
  8
0
  0
POLYLINE
8
0
 62
     0
 66
     1
 10
0
 20
0
 30
0.0
 70
     1
 40
0.5
 41
0.5
  0
VERTEX
  8
0
 10
118.52
 20
112.763
 30
0.0
 40
0.5
 41
0.5
  0
VERTEX
  8
0
 10
118.52
 20
110.903
 30
0.0
 40
0.5
 41
0.5
  0
VERTEX
  8
0
 10
118.144
 20
110.903
 30
0.0
 40
0.5
 41
0.5
  0
VERTEX
  8
0
 10
118.144
 20
112.763
 30
0.0
 40
0.5
 41
0.5
  0
VERTEX
  8
0
 10
118.52
 20
112.763
 30
0.0
 40
0.5
 41
0.5
  0
SEQEND
  8
0
  0
POLYLINE
8
0
 62
     0
 66
     1
 10
0
 20
0
 30
0.0
 70
     1
 40
0.5
 41
0.5
  0
VERTEX
  8
0
 10
118.332
 20
113.864
 30
0.0
 40
0.5
 41
0.5
  0
VERTEX
  8
0
 10
118.503
 20
113.783
 30
0.0
 40
0.5
 41
0.5
  0
VERTEX
  8
0
 10
118.56
 20
113.639
 30
0.0
 40
0.5
 41
0.5
  0
VERTEX
  8
0
 10
118.56
 20
113.634
 30
0.0
 40
0.5
 41
0.5
  0
VERTEX
  8
0
 10
118.56
 20
113.627
 30
0.0
 40
0.5
 41
0.5
  0
VERTEX
  8
0
 10
118.493
 20
113.463
 30
0.0
 40
0.5
 41
0.5
  0
VERTEX
  8
0
 10
118.332
 20
113.387
 30
0.0
 40
0.5
 41
0.5
  0
VERTEX
  8
0
 10
118.156
 20
113.459
 30
0.0
 40
0.5
 41
0.5
  0
VERTEX
  8
0
 10
118.095
 20
113.619
 30
0.0
 40
0.5
 41
0.5
  0
VERTEX
  8
0
 10
118.152
 20
113.785
 30
0.0
 40
0.5
 41
0.5
  0
VERTEX
  8
0
 10
118.332
 20
113.859
 30
0.0
 40
0.5
 41
0.5
  0
VERTEX
  8
0
 10
118.332
 20
113.864
 30
0.0
 40
0.5
 41
0.5
  0
SEQEND
  8
0
  0
POLYLINE
8
0
 62
     0
 66
     1
 10
0
 20
0
 30
0.0
 70
     1
 40
0.5
 41
0.5
  0
VERTEX
  8
0
 10
118.986
 20
112.448
 30
0.0
 40
0.5
 41
0.5
  0
VERTEX
  8
0
 10
118.986
 20
112.763
 30
0.0
 40
0.5
 41
0.5
  0
VERTEX
  8
0
 10
119.146
 20
112.763
 30
0.0
 40
0.5
 41
0.5
  0
VERTEX
  8
0
 10
119.146
 20
113.676
 30
0.0
 40
0.5
 41
0.5
  0
VERTEX
  8
0
 10
119.15
 20
113.823
 30
0.0
 40
0.5
 41
0.5
  0
VERTEX
  8
0
 10
119.174
 20
114.011
 30
0.0
 40
0.5
 41
0.5
  0
VERTEX
  8
0
 10
119.324
 20
114.305
 30
0.0
 40
0.5
 41
0.5
  0
VERTEX
  8
0
 10
119.694
 20
114.439
 30
0.0
 40
0.5
 41
0.5
  0
VERTEX
  8
0
 10
119.834
 20
114.427
 30
0.0
 40
0.5
 41
0.5
  0
VERTEX
  8
0
 10
119.994
 20
114.396
 30
0.0
 40
0.5
 41
0.5
  0
VERTEX
  8
0
 10
119.994
 20
114.023
 30
0.0
 40
0.5
 41
0.5
  0
VERTEX
  8
0
 10
119.87
 20
114.079
 30
0.0
 40
0.5
 41
0.5
  0
VERTEX
  8
0
 10
119.754
 20
114.099
 30
0.0
 40
0.5
 41
0.5
  0
VERTEX
  8
0
 10
119.566
 20
114.011
 30
0.0
 40
0.5
 41
0.5
  0
VERTEX
  8
0
 10
119.49
 20
113.735
 30
0.0
 40
0.5
 41
0.5
  0
VERTEX
  8
0
 10
119.49
 20
112.763
 30
0.0
 40
0.5
 41
0.5
  0
VERTEX
  8
0
 10
119.994
 20
112.763
 30
0.0
 40
0.5
 41
0.5
  0
VERTEX
  8
0
 10
119.994
 20
112.448
 30
0.0
 40
0.5
 41
0.5
  0
VERTEX
  8
0
 10
119.49
 20
112.448
 30
0.0
 40
0.5
 41
0.5
  0
VERTEX
  8
0
 10
119.49
 20
110.903
 30
0.0
 40
0.5
 41
0.5
  0
VERTEX
  8
0
 10
119.146
 20
110.903
 30
0.0
 40
0.5
 41
0.5
  0
VERTEX
  8
0
 10
119.146
 20
112.448
 30
0.0
 40
0.5
 41
0.5
  0
VERTEX
  8
0
 10
118.986
 20
112.448
 30
0.0
 40
0.5
 41
0.5
  0
SEQEND
  8
0
  0
POLYLINE
8
0
 62
     0
 66
     1
 10
0
 20
0
 30
0.0
 70
     1
 40
0.5
 41
0.5
  0
VERTEX
  8
0
 10
120.157
 20
114.399
 30
0.0
 40
0.5
 41
0.5
  0
VERTEX
  8
0
 10
120.537
 20
114.399
 30
0.0
 40
0.5
 41
0.5
  0
VERTEX
  8
0
 10
120.537
 20
112.511
 30
0.0
 40
0.5
 41
0.5
  0
VERTEX
  8
0
 10
120.747
 20
112.713
 30
0.0
 40
0.5
 41
0.5
  0
VERTEX
  8
0
 10
120.997
 20
112.827
 30
0.0
 40
0.5
 41
0.5
  0
VERTEX
  8
0
 10
121.081
 20
112.845
 30
0.0
 40
0.5
 41
0.5
  0
VERTEX
  8
0
 10
121.165
 20
112.851
 30
0.0
 40
0.5
 41
0.5
  0
VERTEX
  8
0
 10
121.331
 20
112.837
 30
0.0
 40
0.5
 41
0.5
  0
VERTEX
  8
0
 10
121.513
 20
112.792
 30
0.0
 40
0.5
 41
0.5
  0
VERTEX
  8
0
 10
121.923
 20
112.511
 30
0.0
 40
0.5
 41
0.5
  0
VERTEX
  8
0
 10
122.109
 20
111.907
 30
0.0
 40
0.5
 41
0.5
  0
VERTEX
  8
0
 10
121.937
 20
111.228
 30
0.0
 40
0.5
 41
0.5
  0
VERTEX
  8
0
 10
121.557
 20
110.911
 30
0.0
 40
0.5
 41
0.5
  0
VERTEX
  8
0
 10
121.367
 20
110.855
 30
0.0
 40
0.5
 41
0.5
  0
VERTEX
  8
0
 10
121.197
 20
110.839
 30
0.0
 40
0.5
 41
0.5
  0
VERTEX
  8
0
 10
120.795
 20
110.941
 30
0.0
 40
0.5
 41
0.5
  0
VERTEX
  8
0
 10
120.537
 20
111.183
 30
0.0
 40
0.5
 41
0.5
  0
VERTEX
  8
0
 10
120.537
 20
110.903
 30
0.0
 40
0.5
 41
0.5
  0
VERTEX
  8
0
 10
120.157
 20
110.903
 30
0.0
 40
0.5
 41
0.5
  0
VERTEX
  8
0
 10
120.157
 20
114.399
 30
0.0
 40
0.5
 41
0.5
  0
SEQEND
  8
0
  0
POLYLINE
8
0
 62
     0
 66
     1
 10
0
 20
0
 30
0.0
 70
     1
 40
0.5
 41
0.5
  0
VERTEX
  8
0
 10
121.701
 20
111.911
 30
0.0
 40
0.5
 41
0.5
  0
VERTEX
  8
0
 10
121.571
 20
112.325
 30
0.0
 40
0.5
 41
0.5
  0
VERTEX
  8
0
 10
121.133
 20
112.507
 30
0.0
 40
0.5
 41
0.5
  0
VERTEX
  8
0
 10
120.707
 20
112.329
 30
0.0
 40
0.5
 41
0.5
  0
VERTEX
  8
0
 10
120.537
 20
111.844
 30
0.0
 40
0.5
 41
0.5
  0
VERTEX
  8
0
 10
120.545
 20
111.719
 30
0.0
 40
0.5
 41
0.5
  0
VERTEX
  8
0
 10
120.569
 20
111.583
 30
0.0
 40
0.5
 41
0.5
  0
VERTEX
  8
0
 10
120.733
 20
111.285
 30
0.0
 40
0.5
 41
0.5
  0
VERTEX
  8
0
 10
121.101
 20
111.151
 30
0.0
 40
0.5
 41
0.5
  0
VERTEX
  8
0
 10
121.531
 20
111.354
 30
0.0
 40
0.5
 41
0.5
  0
VERTEX
  8
0
 10
121.701
 20
111.907
 30
0.0
 40
0.5
 41
0.5
  0
VERTEX
  8
0
 10
121.701
 20
111.911
 30
0.0
 40
0.5
 41
0.5
  0
SEQEND
  8
0
  0
POLYLINE
8
0
 62
     0
 66
     1
 10
0
 20
0
 30
0.0
 70
     1
 40
0.5
 41
0.5
  0
VERTEX
  8
0
 10
123.276
 20
112.351
 30
0.0
 40
0.5
 41
0.5
  0
VERTEX
  8
0
 10
123.276
 20
112.035
 30
0.0
 40
0.5
 41
0.5
  0
VERTEX
  8
0
 10
122.392
 20
112.035
 30
0.0
 40
0.5
 41
0.5
  0
VERTEX
  8
0
 10
122.392
 20
112.351
 30
0.0
 40
0.5
 41
0.5
  0
VERTEX
  8
0
 10
123.276
 20
112.351
 30
0.0
 40
0.5
 41
0.5
  0
SEQEND
  8
0
  0
POLYLINE
8
0
 62
     0
 66
     1
 10
0
 20
0
 30
0.0
 70
     1
 40
0.5
 41
0.5
  0
VERTEX
  8
0
 10
125.386
 20
111.659
 30
0.0
 40
0.5
 41
0.5
  0
VERTEX
  8
0
 10
125.734
 20
111.659
 30
0.0
 40
0.5
 41
0.5
  0
VERTEX
  8
0
 10
125.734
 20
111.344
 30
0.0
 40
0.5
 41
0.5
  0
VERTEX
  8
0
 10
125.386
 20
111.344
 30
0.0
 40
0.5
 41
0.5
  0
VERTEX
  8
0
 10
125.386
 20
110.903
 30
0.0
 40
0.5
 41
0.5
  0
VERTEX
  8
0
 10
125.01
 20
110.903
 30
0.0
 40
0.5
 41
0.5
  0
VERTEX
  8
0
 10
125.01
 20
111.344
 30
0.0
 40
0.5
 41
0.5
  0
VERTEX
  8
0
 10
123.531
 20
111.344
 30
0.0
 40
0.5
 41
0.5
  0
VERTEX
  8
0
 10
125.386
 20
114.052
 30
0.0
 40
0.5
 41
0.5
  0
VERTEX
  8
0
 10
125.386
 20
111.659
 30
0.0
 40
0.5
 41
0.5
  0
SEQEND
  8
0
  0
POLYLINE
8
0
 62
     0
 66
     1
 10
0
 20
0
 30
0.0
 70
     1
 40
0.5
 41
0.5
  0
VERTEX
  8
0
 10
124.158
 20
111.659
 30
0.0
 40
0.5
 41
0.5
  0
VERTEX
  8
0
 10
125.01
 20
111.659
 30
0.0
 40
0.5
 41
0.5
  0
VERTEX
  8
0
 10
125.01
 20
112.951
 30
0.0
 40
0.5
 41
0.5
  0
VERTEX
  8
0
 10
124.158
 20
111.659
 30
0.0
 40
0.5
 41
0.5
  0
SEQEND
  8
0
  0
POLYLINE
8
0
 62
     0
 66
     1
 10
0
 20
0
 30
0.0
 70
     1
 40
0.5
 41
0.5
  0
VERTEX
  8
0
 10
312.531
 20
112.811
 30
0.0
 40
0.5
 41
0.5
  0
VERTEX
  8
0
 10
313.042
 20
113.318
 30
0.0
 40
0.5
 41
0.5
  0
VERTEX
  8
0
 10
312.531
 20
113.832
 30
0.0
 40
0.5
 41
0.5
  0
VERTEX
  8
0
 10
309.64
 20
113.833
 30
0.0
 40
0.5
 41
0.5
  0
VERTEX
  8
0
 10
309.436
 20
113.624
 30
0.0
 40
0.5
 41
0.5
  0
VERTEX
  8
0
 10
309.438
 20
113.017
 30
0.0
 40
0.5
 41
0.5
  0
VERTEX
  8
0
 10
309.64
 20
112.808
 30
0.0
 40
0.5
 41
0.5
  0
VERTEX
  8
0
 10
312.531
 20
112.811
 30
0.0
 40
0.5
 41
0.5
  0
SEQEND
  8
0
  0
POLYLINE
8
0
 62
     0
 66
     1
 10
0
 20
0
 30
0.0
 70
     1
 40
0.5
 41
0.5
  0
VERTEX
  8
0
 10
333.795
 20
113.296
 30
0.0
 40
0.5
 41
0.5
  0
VERTEX
  8
0
 10
333.931
 20
113.346
 30
0.0
 40
0.5
 41
0.5
  0
VERTEX
  8
0
 10
334.081
 20
113.282
 30
0.0
 40
0.5
 41
0.5
  0
VERTEX
  8
0
 10
335.183
 20
112.144
 30
0.0
 40
0.5
 41
0.5
  0
VERTEX
  8
0
 10
332.68
 20
112.144
 30
0.0
 40
0.5
 41
0.5
  0
VERTEX
  8
0
 10
333.795
 20
113.296
 30
0.0
 40
0.5
 41
0.5
  0
SEQEND
  8
0
  0
POLYLINE
8
0
 62
     0
 66
     1
 10
0
 20
0
 30
0.0
 70
     1
 40
0.5
 41
0.5
  0
VERTEX
  8
0
 10
340.375
 20
113.123
 30
0.0
 40
0.5
 41
0.5
  0
VERTEX
  8
0
 10
340.713
 20
113.779
 30
0.0
 40
0.5
 41
0.5
  0
VERTEX
  8
0
 10
341.051
 20
113.854
 30
0.0
 40
0.5
 41
0.5
  0
VERTEX
  8
0
 10
343.659
 20
113.854
 30
0.0
 40
0.5
 41
0.5
  0
VERTEX
  8
0
 10
344.046
 20
113.779
 30
0.0
 40
0.5
 41
0.5
  0
VERTEX
  8
0
 10
344.432
 20
113.041
 30
0.0
 40
0.5
 41
0.5
  0
VERTEX
  8
0
 10
345.978
 20
113.041
 30
0.0
 40
0.5
 41
0.5
  0
VERTEX
  8
0
 10
345.778
 20
113.952
 30
0.0
 40
0.5
 41
0.5
  0
VERTEX
  8
0
 10
345.341
 20
114.4
 30
0.0
 40
0.5
 41
0.5
  0
VERTEX
  8
0
 10
344.903
 20
114.55
 30
0.0
 40
0.5
 41
0.5
  0
VERTEX
  8
0
 10
344.704
 20
114.563
 30
0.0
 40
0.5
 41
0.5
  0
VERTEX
  8
0
 10
340.118
 20
114.563
 30
0.0
 40
0.5
 41
0.5
  0
VERTEX
  8
0
 10
339.918
 20
114.55
 30
0.0
 40
0.5
 41
0.5
  0
VERTEX
  8
0
 10
339.48
 20
114.4
 30
0.0
 40
0.5
 41
0.5
  0
VERTEX
  8
0
 10
339.042
 20
113.952
 30
0.0
 40
0.5
 41
0.5
  0
VERTEX
  8
0
 10
338.844
 20
113.041
 30
0.0
 40
0.5
 41
0.5
  0
VERTEX
  8
0
 10
338.844
 20
112.35
 30
0.0
 40
0.5
 41
0.5
  0
VERTEX
  8
0
 10
339.042
 20
111.439
 30
0.0
 40
0.5
 41
0.5
  0
VERTEX
  8
0
 10
339.48
 20
110.991
 30
0.0
 40
0.5
 41
0.5
  0
VERTEX
  8
0
 10
339.918
 20
110.842
 30
0.0
 40
0.5
 41
0.5
  0
VERTEX
  8
0
 10
340.118
 20
110.828
 30
0.0
 40
0.5
 41
0.5
  0
VERTEX
  8
0
 10
344.704
 20
110.828
 30
0.0
 40
0.5
 41
0.5
  0
VERTEX
  8
0
 10
345.341
 20
110.991
 30
0.0
 40
0.5
 41
0.5
  0
VERTEX
  8
0
 10
345.778
 20
111.439
 30
0.0
 40
0.5
 41
0.5
  0
VERTEX
  8
0
 10
345.978
 20
112.35
 30
0.0
 40
0.5
 41
0.5
  0
VERTEX
  8
0
 10
344.432
 20
112.35
 30
0.0
 40
0.5
 41
0.5
  0
VERTEX
  8
0
 10
344.046
 20
111.612
 30
0.0
 40
0.5
 41
0.5
  0
VERTEX
  8
0
 10
343.659
 20
111.536
 30
0.0
 40
0.5
 41
0.5
  0
VERTEX
  8
0
 10
341.051
 20
111.536
 30
0.0
 40
0.5
 41
0.5
  0
VERTEX
  8
0
 10
340.713
 20
111.612
 30
0.0
 40
0.5
 41
0.5
  0
VERTEX
  8
0
 10
340.375
 20
112.268
 30
0.0
 40
0.5
 41
0.5
  0
VERTEX
  8
0
 10
340.375
 20
113.123
 30
0.0
 40
0.5
 41
0.5
  0
SEQEND
  8
0
  0
POLYLINE
8
0
 62
     0
 66
     1
 10
0
 20
0
 30
0.0
 70
     1
 40
0.5
 41
0.5
  0
VERTEX
  8
0
 10
335.812
 20
111.495
 30
0.0
 40
0.5
 41
0.5
  0
VERTEX
  8
0
 10
332.055
 20
111.495
 30
0.0
 40
0.5
 41
0.5
  0
VERTEX
  8
0
 10
331.415
 20
110.828
 30
0.0
 40
0.5
 41
0.5
  0
VERTEX
  8
0
 10
329.952
 20
110.828
 30
0.0
 40
0.5
 41
0.5
  0
VERTEX
  8
0
 10
333.093
 20
114.196
 30
0.0
 40
0.5
 41
0.5
  0
VERTEX
  8
0
 10
333.933
 20
114.562
 30
0.0
 40
0.5
 41
0.5
  0
VERTEX
  8
0
 10
334.767
 20
114.203
 30
0.0
 40
0.5
 41
0.5
  0
VERTEX
  8
0
 10
337.919
 20
110.828
 30
0.0
 40
0.5
 41
0.5
  0
VERTEX
  8
0
 10
336.456
 20
110.828
 30
0.0
 40
0.5
 41
0.5
  0
VERTEX
  8
0
 10
335.812
 20
111.495
 30
0.0
 40
0.5
 41
0.5
  0
SEQEND
  8
0
  0
POLYLINE
8
0
 62
     0
 66
     1
 10
0
 20
0
 30
0.0
 70
     1
 40
0.5
 41
0.5
  0
VERTEX
  8
0
 10
326.727
 20
111.195
 30
0.0
 40
0.5
 41
0.5
  0
VERTEX
  8
0
 10
327.567
 20
110.829
 30
0.0
 40
0.5
 41
0.5
  0
VERTEX
  8
0
 10
328.401
 20
111.188
 30
0.0
 40
0.5
 41
0.5
  0
VERTEX
  8
0
 10
331.553
 20
114.563
 30
0.0
 40
0.5
 41
0.5
  0
VERTEX
  8
0
 10
330.09
 20
114.563
 30
0.0
 40
0.5
 41
0.5
  0
VERTEX
  8
0
 10
327.715
 20
112.108
 30
0.0
 40
0.5
 41
0.5
  0
VERTEX
  8
0
 10
327.565
 20
112.045
 30
0.0
 40
0.5
 41
0.5
  0
VERTEX
  8
0
 10
327.429
 20
112.095
 30
0.0
 40
0.5
 41
0.5
  0
VERTEX
  8
0
 10
325.049
 20
114.563
 30
0.0
 40
0.5
 41
0.5
  0
VERTEX
  8
0
 10
323.586
 20
114.563
 30
0.0
 40
0.5
 41
0.5
  0
VERTEX
  8
0
 10
326.727
 20
111.195
 30
0.0
 40
0.5
 41
0.5
  0
SEQEND
  8
0
  0
POLYLINE
8
0
 62
     0
 66
     1
 10
0
 20
0
 30
0.0
 70
     1
 40
0.5
 41
0.5
  0
VERTEX
  8
0
 10
322.464
 20
113.832
 30
0.0
 40
0.5
 41
0.5
  0
VERTEX
  8
0
 10
322.464
 20
114.565
 30
0.0
 40
0.5
 41
0.5
  0
VERTEX
  8
0
 10
316.526
 20
114.564
 30
0.0
 40
0.5
 41
0.5
  0
VERTEX
  8
0
 10
316.005
 20
114.042
 30
0.0
 40
0.5
 41
0.5
  0
VERTEX
  8
0
 10
316.005
 20
111.352
 30
0.0
 40
0.5
 41
0.5
  0
VERTEX
  8
0
 10
316.526
 20
110.83
 30
0.0
 40
0.5
 41
0.5
  0
VERTEX
  8
0
 10
322.455
 20
110.828
 30
0.0
 40
0.5
 41
0.5
  0
VERTEX
  8
0
 10
322.455
 20
111.559
 30
0.0
 40
0.5
 41
0.5
  0
VERTEX
  8
0
 10
317.727
 20
111.557
 30
0.0
 40
0.5
 41
0.5
  0
VERTEX
  8
0
 10
317.602
 20
111.682
 30
0.0
 40
0.5
 41
0.5
  0
VERTEX
  8
0
 10
317.602
 20
112.225
 30
0.0
 40
0.5
 41
0.5
  0
VERTEX
  8
0
 10
317.727
 20
112.35
 30
0.0
 40
0.5
 41
0.5
  0
VERTEX
  8
0
 10
322.464
 20
112.35
 30
0.0
 40
0.5
 41
0.5
  0
VERTEX
  8
0
 10
322.464
 20
113.017
 30
0.0
 40
0.5
 41
0.5
  0
VERTEX
  8
0
 10
317.727
 20
113.02
 30
0.0
 40
0.5
 41
0.5
  0
VERTEX
  8
0
 10
317.602
 20
113.145
 30
0.0
 40
0.5
 41
0.5
  0
VERTEX
  8
0
 10
317.602
 20
113.706
 30
0.0
 40
0.5
 41
0.5
  0
VERTEX
  8
0
 10
317.727
 20
113.832
 30
0.0
 40
0.5
 41
0.5
  0
VERTEX
  8
0
 10
322.464
 20
113.832
 30
0.0
 40
0.5
 41
0.5
  0
SEQEND
  8
0
  0
POLYLINE
8
0
 62
     0
 66
     1
 10
0
 20
0
 30
0.0
 70
     1
 40
0.5
 41
0.5
  0
VERTEX
  8
0
 10
309.431
 20
111.849
 30
0.0
 40
0.5
 41
0.5
  0
VERTEX
  8
0
 10
309.64
 20
112.061
 30
0.0
 40
0.5
 41
0.5
  0
VERTEX
  8
0
 10
312.082
 20
112.061
 30
0.0
 40
0.5
 41
0.5
  0
VERTEX
  8
0
 10
312.567
 20
111.929
 30
0.0
 40
0.5
 41
0.5
  0
VERTEX
  8
0
 10
313.053
 20
110.828
 30
0.0
 40
0.5
 41
0.5
  0
VERTEX
  8
0
 10
314.736
 20
110.828
 30
0.0
 40
0.5
 41
0.5
  0
VERTEX
  8
0
 10
314.525
 20
111.635
 30
0.0
 40
0.5
 41
0.5
  0
VERTEX
  8
0
 10
314.079
 20
111.983
 30
0.0
 40
0.5
 41
0.5
  0
VERTEX
  8
0
 10
314.056
 20
111.993
 30
0.0
 40
0.5
 41
0.5
  0
VERTEX
  8
0
 10
313.987
 20
112.105
 30
0.0
 40
0.5
 41
0.5
  0
VERTEX
  8
0
 10
314.057
 20
112.218
 30
0.0
 40
0.5
 41
0.5
  0
VERTEX
  8
0
 10
314.079
 20
112.226
 30
0.0
 40
0.5
 41
0.5
  0
VERTEX
  8
0
 10
314.718
 20
113.372
 30
0.0
 40
0.5
 41
0.5
  0
VERTEX
  8
0
 10
314.143
 20
114.421
 30
0.0
 40
0.5
 41
0.5
  0
VERTEX
  8
0
 10
313.568
 20
114.563
 30
0.0
 40
0.5
 41
0.5
  0
VERTEX
  8
0
 10
308.431
 20
114.564
 30
0.0
 40
0.5
 41
0.5
  0
VERTEX
  8
0
 10
307.896
 20
114.001
 30
0.0
 40
0.5
 41
0.5
  0
VERTEX
  8
0
 10
307.892
 20
110.828
 30
0.0
 40
0.5
 41
0.5
  0
VERTEX
  8
0
 10
309.433
 20
110.828
 30
0.0
 40
0.5
 41
0.5
  0
VERTEX
  8
0
 10
309.433
 20
111.849
 30
0.0
 40
0.5
 41
0.5
  0
VERTEX
  8
0
 10
309.431
 20
111.849
 30
0.0
 40
0.5
 41
0.5
  0
SEQEND
  8
0
  0
POLYLINE
8
0
 62
     0
 66
     1
 10
0
 20
0
 30
0.0
 70
     1
 40
0.5
 41
0.5
  0
VERTEX
  8
0
 10
170.818
 20
76.6077
 30
0.0
 40
0.5
 41
0.5
  0
VERTEX
  8
0
 10
170.842
 20
76.6467
 30
0.0
 40
0.5
 41
0.5
  0
VERTEX
  8
0
 10
170.89
 20
76.7039
 30
0.0
 40
0.5
 41
0.5
  0
VERTEX
  8
0
 10
171.008
 20
76.7817
 30
0.0
 40
0.5
 41
0.5
  0
VERTEX
  8
0
 10
171.196
 20
76.8176
 30
0.0
 40
0.5
 41
0.5
  0
VERTEX
  8
0
 10
171.251
 20
76.8147
 30
0.0
 40
0.5
 41
0.5
  0
VERTEX
  8
0
 10
171.307
 20
76.8057
 30
0.0
 40
0.5
 41
0.5
  0
VERTEX
  8
0
 10
171.467
 20
76.7322
 30
0.0
 40
0.5
 41
0.5
  0
VERTEX
  8
0
 10
171.598
 20
76.5598
 30
0.0
 40
0.5
 41
0.5
  0
VERTEX
  8
0
 10
171.623
 20
76.5972
 30
0.0
 40
0.5
 41
0.5
  0
VERTEX
  8
0
 10
171.652
 20
76.6348
 30
0.0
 40
0.5
 41
0.5
  0
VERTEX
  8
0
 10
171.808
 20
76.7607
 30
0.0
 40
0.5
 41
0.5
  0
VERTEX
  8
0
 10
172.039
 20
76.8208
 30
0.0
 40
0.5
 41
0.5
  0
VERTEX
  8
0
 10
172.067
 20
76.8208
 30
0.0
 40
0.5
 41
0.5
  0
VERTEX
  8
0
 10
172.093
 20
76.8176
 30
0.0
 40
0.5
 41
0.5
  0
VERTEX
  8
0
 10
172.418
 20
76.6257
 30
0.0
 40
0.5
 41
0.5
  0
VERTEX
  8
0
 10
172.495
 20
76.2026
 30
0.0
 40
0.5
 41
0.5
  0
VERTEX
  8
0
 10
172.495
 20
75.3567
 30
0.0
 40
0.5
 41
0.5
  0
VERTEX
  8
0
 10
172.234
 20
75.3567
 30
0.0
 40
0.5
 41
0.5
  0
VERTEX
  8
0
 10
172.234
 20
76.2058
 30
0.0
 40
0.5
 41
0.5
  0
VERTEX
  8
0
 10
172.175
 20
76.4607
 30
0.0
 40
0.5
 41
0.5
  0
VERTEX
  8
0
 10
171.976
 20
76.5598
 30
0.0
 40
0.5
 41
0.5
  0
VERTEX
  8
0
 10
171.75
 20
76.4773
 30
0.0
 40
0.5
 41
0.5
  0
VERTEX
  8
0
 10
171.667
 20
76.1816
 30
0.0
 40
0.5
 41
0.5
  0
VERTEX
  8
0
 10
171.667
 20
75.3567
 30
0.0
 40
0.5
 41
0.5
  0
VERTEX
  8
0
 10
171.385
 20
75.3567
 30
0.0
 40
0.5
 41
0.5
  0
VERTEX
  8
0
 10
171.385
 20
76.2537
 30
0.0
 40
0.5
 41
0.5
  0
VERTEX
  8
0
 10
171.32
 20
76.4697
 30
0.0
 40
0.5
 41
0.5
  0
VERTEX
  8
0
 10
171.181
 20
76.5537
 30
0.0
 40
0.5
 41
0.5
  0
VERTEX
  8
0
 10
171.152
 20
76.5583
 30
0.0
 40
0.5
 41
0.5
  0
VERTEX
  8
0
 10
171.124
 20
76.5598
 30
0.0
 40
0.5
 41
0.5
  0
VERTEX
  8
0
 10
171.097
 20
76.5598
 30
0.0
 40
0.5
 41
0.5
  0
VERTEX
  8
0
 10
171.07
 20
76.5566
 30
0.0
 40
0.5
 41
0.5
  0
VERTEX
  8
0
 10
170.896
 20
76.4758
 30
0.0
 40
0.5
 41
0.5
  0
VERTEX
  8
0
 10
170.818
 20
76.2026
 30
0.0
 40
0.5
 41
0.5
  0
VERTEX
  8
0
 10
170.818
 20
75.3567
 30
0.0
 40
0.5
 41
0.5
  0
VERTEX
  8
0
 10
170.533
 20
75.3567
 30
0.0
 40
0.5
 41
0.5
  0
VERTEX
  8
0
 10
170.533
 20
76.7517
 30
0.0
 40
0.5
 41
0.5
  0
VERTEX
  8
0
 10
170.818
 20
76.7517
 30
0.0
 40
0.5
 41
0.5
  0
VERTEX
  8
0
 10
170.818
 20
76.6077
 30
0.0
 40
0.5
 41
0.5
  0
SEQEND
  8
0
  0
POLYLINE
8
0
 62
     0
 66
     1
 10
0
 20
0
 30
0.0
 70
     1
 40
0.5
 41
0.5
  0
VERTEX
  8
0
 10
173.198
 20
76.7517
 30
0.0
 40
0.5
 41
0.5
  0
VERTEX
  8
0
 10
173.198
 20
75.3567
 30
0.0
 40
0.5
 41
0.5
  0
VERTEX
  8
0
 10
172.916
 20
75.3567
 30
0.0
 40
0.5
 41
0.5
  0
VERTEX
  8
0
 10
172.916
 20
76.7517
 30
0.0
 40
0.5
 41
0.5
  0
VERTEX
  8
0
 10
173.198
 20
76.7517
 30
0.0
 40
0.5
 41
0.5
  0
SEQEND
  8
0
  0
POLYLINE
8
0
 62
     0
 66
     1
 10
0
 20
0
 30
0.0
 70
     1
 40
0.5
 41
0.5
  0
VERTEX
  8
0
 10
173.057
 20
77.5767
 30
0.0
 40
0.5
 41
0.5
  0
VERTEX
  8
0
 10
173.186
 20
77.5168
 30
0.0
 40
0.5
 41
0.5
  0
VERTEX
  8
0
 10
173.228
 20
77.4087
 30
0.0
 40
0.5
 41
0.5
  0
VERTEX
  8
0
 10
173.228
 20
77.4043
 30
0.0
 40
0.5
 41
0.5
  0
VERTEX
  8
0
 10
173.228
 20
77.3997
 30
0.0
 40
0.5
 41
0.5
  0
VERTEX
  8
0
 10
173.178
 20
77.2769
 30
0.0
 40
0.5
 41
0.5
  0
VERTEX
  8
0
 10
173.057
 20
77.2197
 30
0.0
 40
0.5
 41
0.5
  0
VERTEX
  8
0
 10
172.925
 20
77.2737
 30
0.0
 40
0.5
 41
0.5
  0
VERTEX
  8
0
 10
172.88
 20
77.3938
 30
0.0
 40
0.5
 41
0.5
  0
VERTEX
  8
0
 10
172.922
 20
77.5183
 30
0.0
 40
0.5
 41
0.5
  0
VERTEX
  8
0
 10
173.057
 20
77.5737
 30
0.0
 40
0.5
 41
0.5
  0
VERTEX
  8
0
 10
173.057
 20
77.5767
 30
0.0
 40
0.5
 41
0.5
  0
SEQEND
  8
0
  0
POLYLINE
8
0
 62
     0
 66
     1
 10
0
 20
0
 30
0.0
 70
     1
 40
0.5
 41
0.5
  0
VERTEX
  8
0
 10
173.881
 20
76.7517
 30
0.0
 40
0.5
 41
0.5
  0
VERTEX
  8
0
 10
173.881
 20
76.5627
 30
0.0
 40
0.5
 41
0.5
  0
VERTEX
  8
0
 10
173.965
 20
76.6423
 30
0.0
 40
0.5
 41
0.5
  0
VERTEX
  8
0
 10
174.037
 20
76.7039
 30
0.0
 40
0.5
 41
0.5
  0
VERTEX
  8
0
 10
174.155
 20
76.7622
 30
0.0
 40
0.5
 41
0.5
  0
VERTEX
  8
0
 10
174.328
 20
76.7937
 30
0.0
 40
0.5
 41
0.5
  0
VERTEX
  8
0
 10
174.394
 20
76.7908
 30
0.0
 40
0.5
 41
0.5
  0
VERTEX
  8
0
 10
174.463
 20
76.7788
 30
0.0
 40
0.5
 41
0.5
  0
VERTEX
  8
0
 10
174.712
 20
76.6348
 30
0.0
 40
0.5
 41
0.5
  0
VERTEX
  8
0
 10
174.826
 20
76.2988
 30
0.0
 40
0.5
 41
0.5
  0
VERTEX
  8
0
 10
174.826
 20
75.3567
 30
0.0
 40
0.5
 41
0.5
  0
VERTEX
  8
0
 10
174.541
 20
75.3567
 30
0.0
 40
0.5
 41
0.5
  0
VERTEX
  8
0
 10
174.541
 20
76.3018
 30
0.0
 40
0.5
 41
0.5
  0
VERTEX
  8
0
 10
174.463
 20
76.4727
 30
0.0
 40
0.5
 41
0.5
  0
VERTEX
  8
0
 10
174.289
 20
76.5537
 30
0.0
 40
0.5
 41
0.5
  0
VERTEX
  8
0
 10
174.262
 20
76.5583
 30
0.0
 40
0.5
 41
0.5
  0
VERTEX
  8
0
 10
174.235
 20
76.5598
 30
0.0
 40
0.5
 41
0.5
  0
VERTEX
  8
0
 10
174.23
 20
76.5598
 30
0.0
 40
0.5
 41
0.5
  0
VERTEX
  8
0
 10
174.226
 20
76.5598
 30
0.0
 40
0.5
 41
0.5
  0
VERTEX
  8
0
 10
174.004
 20
76.4607
 30
0.0
 40
0.5
 41
0.5
  0
VERTEX
  8
0
 10
173.902
 20
76.1577
 30
0.0
 40
0.5
 41
0.5
  0
VERTEX
  8
0
 10
173.902
 20
75.3567
 30
0.0
 40
0.5
 41
0.5
  0
VERTEX
  8
0
 10
173.62
 20
75.3567
 30
0.0
 40
0.5
 41
0.5
  0
VERTEX
  8
0
 10
173.62
 20
76.7517
 30
0.0
 40
0.5
 41
0.5
  0
VERTEX
  8
0
 10
173.881
 20
76.7517
 30
0.0
 40
0.5
 41
0.5
  0
SEQEND
  8
0
  0
POLYLINE
8
0
 62
     0
 66
     1
 10
0
 20
0
 30
0.0
 70
     1
 40
0.5
 41
0.5
  0
VERTEX
  8
0
 10
184.538
 20
76.8687
 30
0.0
 40
0.5
 41
0.5
  0
VERTEX
  8
0
 10
184.823
 20
76.8687
 30
0.0
 40
0.5
 41
0.5
  0
VERTEX
  8
0
 10
184.823
 20
76.2537
 30
0.0
 40
0.5
 41
0.5
  0
VERTEX
  8
0
 10
185.459
 20
76.2537
 30
0.0
 40
0.5
 41
0.5
  0
VERTEX
  8
0
 10
185.459
 20
75.9956
 30
0.0
 40
0.5
 41
0.5
  0
VERTEX
  8
0
 10
184.823
 20
75.9956
 30
0.0
 40
0.5
 41
0.5
  0
VERTEX
  8
0
 10
184.823
 20
75.3567
 30
0.0
 40
0.5
 41
0.5
  0
VERTEX
  8
0
 10
184.538
 20
75.3567
 30
0.0
 40
0.5
 41
0.5
  0
VERTEX
  8
0
 10
184.538
 20
75.9956
 30
0.0
 40
0.5
 41
0.5
  0
VERTEX
  8
0
 10
183.923
 20
75.9956
 30
0.0
 40
0.5
 41
0.5
  0
VERTEX
  8
0
 10
183.923
 20
76.2537
 30
0.0
 40
0.5
 41
0.5
  0
VERTEX
  8
0
 10
184.538
 20
76.2537
 30
0.0
 40
0.5
 41
0.5
  0
VERTEX
  8
0
 10
184.538
 20
76.8687
 30
0.0
 40
0.5
 41
0.5
  0
SEQEND
  8
0
  0
POLYLINE
8
0
 62
     0
 66
     1
 10
0
 20
0
 30
0.0
 70
     1
 40
0.5
 41
0.5
  0
VERTEX
  8
0
 10
185.883
 20
77.3635
 30
0.0
 40
0.5
 41
0.5
  0
VERTEX
  8
0
 10
186.048
 20
77.6487
 30
0.0
 40
0.5
 41
0.5
  0
VERTEX
  8
0
 10
186.546
 20
77.6487
 30
0.0
 40
0.5
 41
0.5
  0
VERTEX
  8
0
 10
186.546
 20
75.3567
 30
0.0
 40
0.5
 41
0.5
  0
VERTEX
  8
0
 10
186.261
 20
75.3567
 30
0.0
 40
0.5
 41
0.5
  0
VERTEX
  8
0
 10
186.261
 20
77.3635
 30
0.0
 40
0.5
 41
0.5
  0
VERTEX
  8
0
 10
185.883
 20
77.3635
 30
0.0
 40
0.5
 41
0.5
  0
SEQEND
  8
0
  0
POLYLINE
8
0
 62
     0
 66
     1
 10
0
 20
0
 30
0.0
 70
     1
 40
0.5
 41
0.5
  0
VERTEX
  8
0
 10
188.41
 20
76.6077
 30
0.0
 40
0.5
 41
0.5
  0
VERTEX
  8
0
 10
188.539
 20
76.8101
 30
0.0
 40
0.5
 41
0.5
  0
VERTEX
  8
0
 10
188.578
 20
76.9917
 30
0.0
 40
0.5
 41
0.5
  0
VERTEX
  8
0
 10
188.457
 20
77.2676
 30
0.0
 40
0.5
 41
0.5
  0
VERTEX
  8
0
 10
188.182
 20
77.3845
 30
0.0
 40
0.5
 41
0.5
  0
VERTEX
  8
0
 10
188.166
 20
77.3845
 30
0.0
 40
0.5
 41
0.5
  0
VERTEX
  8
0
 10
188.149
 20
77.3845
 30
0.0
 40
0.5
 41
0.5
  0
VERTEX
  8
0
 10
187.848
 20
77.2766
 30
0.0
 40
0.5
 41
0.5
  0
VERTEX
  8
0
 10
187.72
 20
77.0396
 30
0.0
 40
0.5
 41
0.5
  0
VERTEX
  8
0
 10
187.72
 20
77.0276
 30
0.0
 40
0.5
 41
0.5
  0
VERTEX
  8
0
 10
187.72
 20
77.0156
 30
0.0
 40
0.5
 41
0.5
  0
VERTEX
  8
0
 10
187.72
 20
77.0081
 30
0.0
 40
0.5
 41
0.5
  0
VERTEX
  8
0
 10
187.723
 20
77.0007
 30
0.0
 40
0.5
 41
0.5
  0
VERTEX
  8
0
 10
187.723
 20
76.9917
 30
0.0
 40
0.5
 41
0.5
  0
VERTEX
  8
0
 10
187.723
 20
76.9827
 30
0.0
 40
0.5
 41
0.5
  0
VERTEX
  8
0
 10
187.417
 20
76.9856
 30
0.0
 40
0.5
 41
0.5
  0
VERTEX
  8
0
 10
187.621
 20
77.4478
 30
0.0
 40
0.5
 41
0.5
  0
VERTEX
  8
0
 10
188.125
 20
77.6458
 30
0.0
 40
0.5
 41
0.5
  0
VERTEX
  8
0
 10
188.143
 20
77.6458
 30
0.0
 40
0.5
 41
0.5
  0
VERTEX
  8
0
 10
188.161
 20
77.6458
 30
0.0
 40
0.5
 41
0.5
  0
VERTEX
  8
0
 10
188.692
 20
77.4583
 30
0.0
 40
0.5
 41
0.5
  0
VERTEX
  8
0
 10
188.893
 20
77.0037
 30
0.0
 40
0.5
 41
0.5
  0
VERTEX
  8
0
 10
188.878
 20
76.8643
 30
0.0
 40
0.5
 41
0.5
  0
VERTEX
  8
0
 10
188.83
 20
76.7246
 30
0.0
 40
0.5
 41
0.5
  0
VERTEX
  8
0
 10
188.772
 20
76.6167
 30
0.0
 40
0.5
 41
0.5
  0
VERTEX
  8
0
 10
188.692
 20
76.5117
 30
0.0
 40
0.5
 41
0.5
  0
VERTEX
  8
0
 10
187.936
 20
75.6177
 30
0.0
 40
0.5
 41
0.5
  0
VERTEX
  8
0
 10
188.857
 20
75.6177
 30
0.0
 40
0.5
 41
0.5
  0
VERTEX
  8
0
 10
188.857
 20
75.3567
 30
0.0
 40
0.5
 41
0.5
  0
VERTEX
  8
0
 10
187.393
 20
75.3567
 30
0.0
 40
0.5
 41
0.5
  0
VERTEX
  8
0
 10
188.41
 20
76.6077
 30
0.0
 40
0.5
 41
0.5
  0
SEQEND
  8
0
  0
POLYLINE
8
0
 62
     0
 66
     1
 10
0
 20
0
 30
0.0
 70
     1
 40
0.5
 41
0.5
  0
VERTEX
  8
0
 10
190.463
 20
77.9788
 30
0.0
 40
0.5
 41
0.5
  0
VERTEX
  8
0
 10
190.463
 20
75.3567
 30
0.0
 40
0.5
 41
0.5
  0
VERTEX
  8
0
 10
190.202
 20
75.3567
 30
0.0
 40
0.5
 41
0.5
  0
VERTEX
  8
0
 10
190.202
 20
75.5938
 30
0.0
 40
0.5
 41
0.5
  0
VERTEX
  8
0
 10
190.104
 20
75.4631
 30
0.0
 40
0.5
 41
0.5
  0
VERTEX
  8
0
 10
189.995
 20
75.3777
 30
0.0
 40
0.5
 41
0.5
  0
VERTEX
  8
0
 10
189.851
 20
75.3237
 30
0.0
 40
0.5
 41
0.5
  0
VERTEX
  8
0
 10
189.731
 20
75.3086
 30
0.0
 40
0.5
 41
0.5
  0
VERTEX
  8
0
 10
189.713
 20
75.3086
 30
0.0
 40
0.5
 41
0.5
  0
VERTEX
  8
0
 10
189.695
 20
75.3086
 30
0.0
 40
0.5
 41
0.5
  0
VERTEX
  8
0
 10
189.281
 20
75.4512
 30
0.0
 40
0.5
 41
0.5
  0
VERTEX
  8
0
 10
189.068
 20
75.7737
 30
0.0
 40
0.5
 41
0.5
  0
VERTEX
  8
0
 10
189.034
 20
75.9102
 30
0.0
 40
0.5
 41
0.5
  0
VERTEX
  8
0
 10
189.023
 20
76.0376
 30
0.0
 40
0.5
 41
0.5
  0
VERTEX
  8
0
 10
189.217
 20
76.6062
 30
0.0
 40
0.5
 41
0.5
  0
VERTEX
  8
0
 10
189.644
 20
76.8147
 30
0.0
 40
0.5
 41
0.5
  0
VERTEX
  8
0
 10
189.676
 20
76.8176
 30
0.0
 40
0.5
 41
0.5
  0
VERTEX
  8
0
 10
189.708
 20
76.8176
 30
0.0
 40
0.5
 41
0.5
  0
VERTEX
  8
0
 10
189.782
 20
76.8132
 30
0.0
 40
0.5
 41
0.5
  0
VERTEX
  8
0
 10
189.86
 20
76.7996
 30
0.0
 40
0.5
 41
0.5
  0
VERTEX
  8
0
 10
190.042
 20
76.7188
 30
0.0
 40
0.5
 41
0.5
  0
VERTEX
  8
0
 10
190.181
 20
76.5596
 30
0.0
 40
0.5
 41
0.5
  0
VERTEX
  8
0
 10
190.181
 20
77.9788
 30
0.0
 40
0.5
 41
0.5
  0
VERTEX
  8
0
 10
190.463
 20
77.9788
 30
0.0
 40
0.5
 41
0.5
  0
SEQEND
  8
0
  0
POLYLINE
8
0
 62
     0
 66
     1
 10
0
 20
0
 30
0.0
 70
     1
 40
0.5
 41
0.5
  0
VERTEX
  8
0
 10
190.181
 20
76.0886
 30
0.0
 40
0.5
 41
0.5
  0
VERTEX
  8
0
 10
190.075
 20
76.4487
 30
0.0
 40
0.5
 41
0.5
  0
VERTEX
  8
0
 10
189.755
 20
76.5806
 30
0.0
 40
0.5
 41
0.5
  0
VERTEX
  8
0
 10
189.451
 20
76.4531
 30
0.0
 40
0.5
 41
0.5
  0
VERTEX
  8
0
 10
189.317
 20
76.1726
 30
0.0
 40
0.5
 41
0.5
  0
VERTEX
  8
0
 10
189.308
 20
76.1052
 30
0.0
 40
0.5
 41
0.5
  0
VERTEX
  8
0
 10
189.305
 20
76.0376
 30
0.0
 40
0.5
 41
0.5
  0
VERTEX
  8
0
 10
189.314
 20
75.9431
 30
0.0
 40
0.5
 41
0.5
  0
VERTEX
  8
0
 10
189.344
 20
75.8367
 30
0.0
 40
0.5
 41
0.5
  0
VERTEX
  8
0
 10
189.481
 20
75.634
 30
0.0
 40
0.5
 41
0.5
  0
VERTEX
  8
0
 10
189.755
 20
75.5427
 30
0.0
 40
0.5
 41
0.5
  0
VERTEX
  8
0
 10
190.051
 20
75.6702
 30
0.0
 40
0.5
 41
0.5
  0
VERTEX
  8
0
 10
190.169
 20
75.9507
 30
0.0
 40
0.5
 41
0.5
  0
VERTEX
  8
0
 10
190.178
 20
76.0181
 30
0.0
 40
0.5
 41
0.5
  0
VERTEX
  8
0
 10
190.181
 20
76.0857
 30
0.0
 40
0.5
 41
0.5
  0
VERTEX
  8
0
 10
190.181
 20
76.0886
 30
0.0
 40
0.5
 41
0.5
  0
SEQEND
  8
0
  0
POLYLINE
8
0
 62
     0
 66
     1
 10
0
 20
0
 30
0.0
 70
     1
 40
0.5
 41
0.5
  0
VERTEX
  8
0
 10
191.102
 20
77.6006
 30
0.0
 40
0.5
 41
0.5
  0
VERTEX
  8
0
 10
191.214
 20
77.5977
 30
0.0
 40
0.5
 41
0.5
  0
VERTEX
  8
0
 10
191.333
 20
77.5916
 30
0.0
 40
0.5
 41
0.5
  0
VERTEX
  8
0
 10
191.747
 20
77.4836
 30
0.0
 40
0.5
 41
0.5
  0
VERTEX
  8
0
 10
191.951
 20
77.0786
 30
0.0
 40
0.5
 41
0.5
  0
VERTEX
  8
0
 10
191.88
 20
76.759
 30
0.0
 40
0.5
 41
0.5
  0
VERTEX
  8
0
 10
191.669
 20
76.5806
 30
0.0
 40
0.5
 41
0.5
  0
VERTEX
  8
0
 10
191.702
 20
76.5776
 30
0.0
 40
0.5
 41
0.5
  0
VERTEX
  8
0
 10
191.735
 20
76.5686
 30
0.0
 40
0.5
 41
0.5
  0
VERTEX
  8
0
 10
192.03
 20
76.3677
 30
0.0
 40
0.5
 41
0.5
  0
VERTEX
  8
0
 10
192.164
 20
75.9688
 30
0.0
 40
0.5
 41
0.5
  0
VERTEX
  8
0
 10
191.928
 20
75.5127
 30
0.0
 40
0.5
 41
0.5
  0
VERTEX
  8
0
 10
191.336
 20
75.3567
 30
0.0
 40
0.5
 41
0.5
  0
VERTEX
  8
0
 10
190.817
 20
75.3567
 30
0.0
 40
0.5
 41
0.5
  0
VERTEX
  8
0
 10
190.817
 20
77.6006
 30
0.0
 40
0.5
 41
0.5
  0
VERTEX
  8
0
 10
191.102
 20
77.6006
 30
0.0
 40
0.5
 41
0.5
  0
SEQEND
  8
0
  0
POLYLINE
8
0
 62
     0
 66
     1
 10
0
 20
0
 30
0.0
 70
     1
 40
0.5
 41
0.5
  0
VERTEX
  8
0
 10
191.123
 20
76.4187
 30
0.0
 40
0.5
 41
0.5
  0
VERTEX
  8
0
 10
191.123
 20
75.5938
 30
0.0
 40
0.5
 41
0.5
  0
VERTEX
  8
0
 10
191.21
 20
75.5833
 30
0.0
 40
0.5
 41
0.5
  0
VERTEX
  8
0
 10
191.291
 20
75.5786
 30
0.0
 40
0.5
 41
0.5
  0
VERTEX
  8
0
 10
191.624
 20
75.6431
 30
0.0
 40
0.5
 41
0.5
  0
VERTEX
  8
0
 10
191.801
 20
75.7856
 30
0.0
 40
0.5
 41
0.5
  0
VERTEX
  8
0
 10
191.844
 20
75.8726
 30
0.0
 40
0.5
 41
0.5
  0
VERTEX
  8
0
 10
191.858
 20
75.9446
 30
0.0
 40
0.5
 41
0.5
  0
VERTEX
  8
0
 10
191.858
 20
75.9626
 30
0.0
 40
0.5
 41
0.5
  0
VERTEX
  8
0
 10
191.858
 20
75.9836
 30
0.0
 40
0.5
 41
0.5
  0
VERTEX
  8
0
 10
191.679
 20
76.3137
 30
0.0
 40
0.5
 41
0.5
  0
VERTEX
  8
0
 10
191.123
 20
76.4155
 30
0.0
 40
0.5
 41
0.5
  0
VERTEX
  8
0
 10
191.123
 20
76.4187
 30
0.0
 40
0.5
 41
0.5
  0
SEQEND
  8
0
  0
POLYLINE
8
0
 62
     0
 66
     1
 10
0
 20
0
 30
0.0
 70
     1
 40
0.5
 41
0.5
  0
VERTEX
  8
0
 10
191.123
 20
77.3877
 30
0.0
 40
0.5
 41
0.5
  0
VERTEX
  8
0
 10
191.123
 20
76.6316
 30
0.0
 40
0.5
 41
0.5
  0
VERTEX
  8
0
 10
191.172
 20
76.6257
 30
0.0
 40
0.5
 41
0.5
  0
VERTEX
  8
0
 10
191.222
 20
76.6257
 30
0.0
 40
0.5
 41
0.5
  0
VERTEX
  8
0
 10
191.555
 20
76.7083
 30
0.0
 40
0.5
 41
0.5
  0
VERTEX
  8
0
 10
191.669
 20
76.9827
 30
0.0
 40
0.5
 41
0.5
  0
VERTEX
  8
0
 10
191.669
 20
76.9902
 30
0.0
 40
0.5
 41
0.5
  0
VERTEX
  8
0
 10
191.669
 20
76.9976
 30
0.0
 40
0.5
 41
0.5
  0
VERTEX
  8
0
 10
191.667
 20
77.0652
 30
0.0
 40
0.5
 41
0.5
  0
VERTEX
  8
0
 10
191.657
 20
77.1416
 30
0.0
 40
0.5
 41
0.5
  0
VERTEX
  8
0
 10
191.538
 20
77.3096
 30
0.0
 40
0.5
 41
0.5
  0
VERTEX
  8
0
 10
191.192
 20
77.3845
 30
0.0
 40
0.5
 41
0.5
  0
VERTEX
  8
0
 10
191.159
 20
77.3845
 30
0.0
 40
0.5
 41
0.5
  0
VERTEX
  8
0
 10
191.123
 20
77.3845
 30
0.0
 40
0.5
 41
0.5
  0
VERTEX
  8
0
 10
191.123
 20
77.3877
 30
0.0
 40
0.5
 41
0.5
  0
SEQEND
  8
0
  0
POLYLINE
8
0
 62
     0
 66
     1
 10
0
 20
0
 30
0.0
 70
     1
 40
0.5
 41
0.5
  0
VERTEX
  8
0
 10
110.908
 20
80.761
 30
0.0
 40
0.5
 41
0.5
  0
VERTEX
  8
0
 10
110.972
 20
80.8191
 30
0.0
 40
0.5
 41
0.5
  0
VERTEX
  8
0
 10
111.036
 20
80.877
 30
0.0
 40
0.5
 41
0.5
  0
VERTEX
  8
0
 10
111.304
 20
81.043
 30
0.0
 40
0.5
 41
0.5
  0
VERTEX
  8
0
 10
111.632
 20
81.1011
 30
0.0
 40
0.5
 41
0.5
  0
VERTEX
  8
0
 10
111.678
 20
81.0991
 30
0.0
 40
0.5
 41
0.5
  0
VERTEX
  8
0
 10
111.724
 20
81.0969
 30
0.0
 40
0.5
 41
0.5
  0
VERTEX
  8
0
 10
112.246
 20
80.803
 30
0.0
 40
0.5
 41
0.5
  0
VERTEX
  8
0
 10
112.484
 20
80.061
 30
0.0
 40
0.5
 41
0.5
  0
VERTEX
  8
0
 10
112.232
 20
79.3911
 30
0.0
 40
0.5
 41
0.5
  0
VERTEX
  8
0
 10
111.6
 20
79.1211
 30
0.0
 40
0.5
 41
0.5
  0
VERTEX
  8
0
 10
111.21
 20
79.199
 30
0.0
 40
0.5
 41
0.5
  0
VERTEX
  8
0
 10
110.94
 20
79.4651
 30
0.0
 40
0.5
 41
0.5
  0
VERTEX
  8
0
 10
110.94
 20
78.113
 30
0.0
 40
0.5
 41
0.5
  0
VERTEX
  8
0
 10
110.56
 20
78.113
 30
0.0
 40
0.5
 41
0.5
  0
VERTEX
  8
0
 10
110.56
 20
81.0449
 30
0.0
 40
0.5
 41
0.5
  0
VERTEX
  8
0
 10
110.908
 20
81.0449
 30
0.0
 40
0.5
 41
0.5
  0
VERTEX
  8
0
 10
110.908
 20
80.761
 30
0.0
 40
0.5
 41
0.5
  0
SEQEND
  8
0
  0
POLYLINE
8
0
 62
     0
 66
     1
 10
0
 20
0
 30
0.0
 70
     1
 40
0.5
 41
0.5
  0
VERTEX
  8
0
 10
112.104
 20
80.1292
 30
0.0
 40
0.5
 41
0.5
  0
VERTEX
  8
0
 10
111.92
 20
80.6111
 30
0.0
 40
0.5
 41
0.5
  0
VERTEX
  8
0
 10
111.476
 20
80.7891
 30
0.0
 40
0.5
 41
0.5
  0
VERTEX
  8
0
 10
111.086
 20
80.623
 30
0.0
 40
0.5
 41
0.5
  0
VERTEX
  8
0
 10
110.908
 20
80.125
 30
0.0
 40
0.5
 41
0.5
  0
VERTEX
  8
0
 10
111.042
 20
79.6392
 30
0.0
 40
0.5
 41
0.5
  0
VERTEX
  8
0
 10
111.504
 20
79.4331
 30
0.0
 40
0.5
 41
0.5
  0
VERTEX
  8
0
 10
111.94
 20
79.627
 30
0.0
 40
0.5
 41
0.5
  0
VERTEX
  8
0
 10
112.108
 20
80.0649
 30
0.0
 40
0.5
 41
0.5
  0
VERTEX
  8
0
 10
112.108
 20
80.0811
 30
0.0
 40
0.5
 41
0.5
  0
VERTEX
  8
0
 10
112.108
 20
80.0969
 30
0.0
 40
0.5
 41
0.5
  0
VERTEX
  8
0
 10
112.104
 20
80.1091
 30
0.0
 40
0.5
 41
0.5
  0
VERTEX
  8
0
 10
112.104
 20
80.125
 30
0.0
 40
0.5
 41
0.5
  0
VERTEX
  8
0
 10
112.104
 20
80.1292
 30
0.0
 40
0.5
 41
0.5
  0
SEQEND
  8
0
  0
POLYLINE
8
0
 62
     0
 66
     1
 10
0
 20
0
 30
0.0
 70
     1
 40
0.5
 41
0.5
  0
VERTEX
  8
0
 10
112.703
 20
80.1611
 30
0.0
 40
0.5
 41
0.5
  0
VERTEX
  8
0
 10
112.705
 20
80.231
 30
0.0
 40
0.5
 41
0.5
  0
VERTEX
  8
0
 10
112.715
 20
80.3091
 30
0.0
 40
0.5
 41
0.5
  0
VERTEX
  8
0
 10
113.005
 20
80.853
 30
0.0
 40
0.5
 41
0.5
  0
VERTEX
  8
0
 10
113.711
 20
81.1011
 30
0.0
 40
0.5
 41
0.5
  0
VERTEX
  8
0
 10
113.881
 20
81.0891
 30
0.0
 40
0.5
 41
0.5
  0
VERTEX
  8
0
 10
114.067
 20
81.0491
 30
0.0
 40
0.5
 41
0.5
  0
VERTEX
  8
0
 10
114.503
 20
80.7852
 30
0.0
 40
0.5
 41
0.5
  0
VERTEX
  8
0
 10
114.719
 20
80.2209
 30
0.0
 40
0.5
 41
0.5
  0
VERTEX
  8
0
 10
114.719
 20
80.209
 30
0.0
 40
0.5
 41
0.5
  0
VERTEX
  8
0
 10
114.719
 20
80.197
 30
0.0
 40
0.5
 41
0.5
  0
VERTEX
  8
0
 10
114.719
 20
80.1831
 30
0.0
 40
0.5
 41
0.5
  0
VERTEX
  8
0
 10
114.719
 20
80.1689
 30
0.0
 40
0.5
 41
0.5
  0
VERTEX
  8
0
 10
114.713
 20
80.0691
 30
0.0
 40
0.5
 41
0.5
  0
VERTEX
  8
0
 10
114.699
 20
79.969
 30
0.0
 40
0.5
 41
0.5
  0
VERTEX
  8
0
 10
114.387
 20
79.407
 30
0.0
 40
0.5
 41
0.5
  0
VERTEX
  8
0
 10
113.711
 20
79.1531
 30
0.0
 40
0.5
 41
0.5
  0
VERTEX
  8
0
 10
113.047
 20
79.3411
 30
0.0
 40
0.5
 41
0.5
  0
VERTEX
  8
0
 10
112.763
 20
79.7571
 30
0.0
 40
0.5
 41
0.5
  0
VERTEX
  8
0
 10
112.715
 20
79.969
 30
0.0
 40
0.5
 41
0.5
  0
VERTEX
  8
0
 10
112.703
 20
80.157
 30
0.0
 40
0.5
 41
0.5
  0
VERTEX
  8
0
 10
112.703
 20
80.1611
 30
0.0
 40
0.5
 41
0.5
  0
SEQEND
  8
0
  0
POLYLINE
8
0
 62
     0
 66
     1
 10
0
 20
0
 30
0.0
 70
     1
 40
0.5
 41
0.5
  0
VERTEX
  8
0
 10
114.339
 20
80.1931
 30
0.0
 40
0.5
 41
0.5
  0
VERTEX
  8
0
 10
114.323
 20
80.269
 30
0.0
 40
0.5
 41
0.5
  0
VERTEX
  8
0
 10
114.243
 20
80.4731
 30
0.0
 40
0.5
 41
0.5
  0
VERTEX
  8
0
 10
114.053
 20
80.6689
 30
0.0
 40
0.5
 41
0.5
  0
VERTEX
  8
0
 10
113.711
 20
80.7571
 30
0.0
 40
0.5
 41
0.5
  0
VERTEX
  8
0
 10
113.217
 20
80.5591
 30
0.0
 40
0.5
 41
0.5
  0
VERTEX
  8
0
 10
113.079
 20
80.125
 30
0.0
 40
0.5
 41
0.5
  0
VERTEX
  8
0
 10
113.253
 20
79.7051
 30
0.0
 40
0.5
 41
0.5
  0
VERTEX
  8
0
 10
113.587
 20
79.5171
 30
0.0
 40
0.5
 41
0.5
  0
VERTEX
  8
0
 10
113.663
 20
79.501
 30
0.0
 40
0.5
 41
0.5
  0
VERTEX
  8
0
 10
113.74
 20
79.4971
 30
0.0
 40
0.5
 41
0.5
  0
VERTEX
  8
0
 10
114.149
 20
79.6731
 30
0.0
 40
0.5
 41
0.5
  0
VERTEX
  8
0
 10
114.339
 20
80.061
 30
0.0
 40
0.5
 41
0.5
  0
VERTEX
  8
0
 10
114.341
 20
80.0991
 30
0.0
 40
0.5
 41
0.5
  0
VERTEX
  8
0
 10
114.344
 20
80.1331
 30
0.0
 40
0.5
 41
0.5
  0
VERTEX
  8
0
 10
114.344
 20
80.147
 30
0.0
 40
0.5
 41
0.5
  0
VERTEX
  8
0
 10
114.344
 20
80.1611
 30
0.0
 40
0.5
 41
0.5
  0
VERTEX
  8
0
 10
114.339
 20
80.175
 30
0.0
 40
0.5
 41
0.5
  0
VERTEX
  8
0
 10
114.339
 20
80.189
 30
0.0
 40
0.5
 41
0.5
  0
VERTEX
  8
0
 10
114.339
 20
80.1931
 30
0.0
 40
0.5
 41
0.5
  0
SEQEND
  8
0
  0
POLYLINE
8
0
 62
     0
 66
     1
 10
0
 20
0
 30
0.0
 70
     1
 40
0.5
 41
0.5
  0
VERTEX
  8
0
 10
115.128
 20
81.0449
 30
0.0
 40
0.5
 41
0.5
  0
VERTEX
  8
0
 10
115.66
 20
79.845
 30
0.0
 40
0.5
 41
0.5
  0
VERTEX
  8
0
 10
116.228
 20
81.105
 30
0.0
 40
0.5
 41
0.5
  0
VERTEX
  8
0
 10
116.764
 20
79.877
 30
0.0
 40
0.5
 41
0.5
  0
VERTEX
  8
0
 10
117.3
 20
81.0449
 30
0.0
 40
0.5
 41
0.5
  0
VERTEX
  8
0
 10
117.708
 20
81.0449
 30
0.0
 40
0.5
 41
0.5
  0
VERTEX
  8
0
 10
117.024
 20
79.6931
 30
0.0
 40
0.5
 41
0.5
  0
VERTEX
  8
0
 10
116.764
 20
79.1531
 30
0.0
 40
0.5
 41
0.5
  0
VERTEX
  8
0
 10
116.196
 20
80.3491
 30
0.0
 40
0.5
 41
0.5
  0
VERTEX
  8
0
 10
115.66
 20
79.1531
 30
0.0
 40
0.5
 41
0.5
  0
VERTEX
  8
0
 10
114.716
 20
81.0449
 30
0.0
 40
0.5
 41
0.5
  0
VERTEX
  8
0
 10
115.128
 20
81.0449
 30
0.0
 40
0.5
 41
0.5
  0
SEQEND
  8
0
  0
POLYLINE
8
0
 62
     0
 66
     1
 10
0
 20
0
 30
0.0
 70
     1
 40
0.5
 41
0.5
  0
VERTEX
  8
0
 10
119.217
 20
79.813
 30
0.0
 40
0.5
 41
0.5
  0
VERTEX
  8
0
 10
119.529
 20
79.657
 30
0.0
 40
0.5
 41
0.5
  0
VERTEX
  8
0
 10
119.483
 20
79.573
 30
0.0
 40
0.5
 41
0.5
  0
VERTEX
  8
0
 10
119.429
 20
79.489
 30
0.0
 40
0.5
 41
0.5
  0
VERTEX
  8
0
 10
119.153
 20
79.2351
 30
0.0
 40
0.5
 41
0.5
  0
VERTEX
  8
0
 10
118.649
 20
79.1211
 30
0.0
 40
0.5
 41
0.5
  0
VERTEX
  8
0
 10
118.035
 20
79.405
 30
0.0
 40
0.5
 41
0.5
  0
VERTEX
  8
0
 10
117.769
 20
80.033
 30
0.0
 40
0.5
 41
0.5
  0
VERTEX
  8
0
 10
117.767
 20
80.0811
 30
0.0
 40
0.5
 41
0.5
  0
VERTEX
  8
0
 10
117.765
 20
80.1292
 30
0.0
 40
0.5
 41
0.5
  0
VERTEX
  8
0
 10
117.765
 20
80.1589
 30
0.0
 40
0.5
 41
0.5
  0
VERTEX
  8
0
 10
117.765
 20
80.189
 30
0.0
 40
0.5
 41
0.5
  0
VERTEX
  8
0
 10
118.011
 20
80.8669
 30
0.0
 40
0.5
 41
0.5
  0
VERTEX
  8
0
 10
118.681
 20
81.165
 30
0.0
 40
0.5
 41
0.5
  0
VERTEX
  8
0
 10
119.263
 20
80.947
 30
0.0
 40
0.5
 41
0.5
  0
VERTEX
  8
0
 10
119.525
 20
80.469
 30
0.0
 40
0.5
 41
0.5
  0
VERTEX
  8
0
 10
119.555
 20
80.3071
 30
0.0
 40
0.5
 41
0.5
  0
VERTEX
  8
0
 10
119.565
 20
80.1531
 30
0.0
 40
0.5
 41
0.5
  0
VERTEX
  8
0
 10
119.565
 20
80.105
 30
0.0
 40
0.5
 41
0.5
  0
VERTEX
  8
0
 10
119.561
 20
80.061
 30
0.0
 40
0.5
 41
0.5
  0
VERTEX
  8
0
 10
118.145
 20
80.0649
 30
0.0
 40
0.5
 41
0.5
  0
VERTEX
  8
0
 10
118.311
 20
79.635
 30
0.0
 40
0.5
 41
0.5
  0
VERTEX
  8
0
 10
118.713
 20
79.4651
 30
0.0
 40
0.5
 41
0.5
  0
VERTEX
  8
0
 10
118.771
 20
79.469
 30
0.0
 40
0.5
 41
0.5
  0
VERTEX
  8
0
 10
118.833
 20
79.481
 30
0.0
 40
0.5
 41
0.5
  0
VERTEX
  8
0
 10
119.055
 20
79.593
 30
0.0
 40
0.5
 41
0.5
  0
VERTEX
  8
0
 10
119.217
 20
79.8091
 30
0.0
 40
0.5
 41
0.5
  0
VERTEX
  8
0
 10
119.217
 20
79.813
 30
0.0
 40
0.5
 41
0.5
  0
SEQEND
  8
0
  0
POLYLINE
8
0
 62
     0
 66
     1
 10
0
 20
0
 30
0.0
 70
     1
 40
0.5
 41
0.5
  0
VERTEX
  8
0
 10
119.185
 20
80.3491
 30
0.0
 40
0.5
 41
0.5
  0
VERTEX
  8
0
 10
119.027
 20
80.7031
 30
0.0
 40
0.5
 41
0.5
  0
VERTEX
  8
0
 10
118.681
 20
80.8491
 30
0.0
 40
0.5
 41
0.5
  0
VERTEX
  8
0
 10
118.589
 20
80.8391
 30
0.0
 40
0.5
 41
0.5
  0
VERTEX
  8
0
 10
118.493
 20
80.8091
 30
0.0
 40
0.5
 41
0.5
  0
VERTEX
  8
0
 10
118.277
 20
80.655
 30
0.0
 40
0.5
 41
0.5
  0
VERTEX
  8
0
 10
118.145
 20
80.345
 30
0.0
 40
0.5
 41
0.5
  0
VERTEX
  8
0
 10
119.185
 20
80.3491
 30
0.0
 40
0.5
 41
0.5
  0
SEQEND
  8
0
  0
POLYLINE
8
0
 62
     0
 66
     1
 10
0
 20
0
 30
0.0
 70
     1
 40
0.5
 41
0.5
  0
VERTEX
  8
0
 10
120.222
 20
80.761
 30
0.0
 40
0.5
 41
0.5
  0
VERTEX
  8
0
 10
120.462
 20
80.999
 30
0.0
 40
0.5
 41
0.5
  0
VERTEX
  8
0
 10
120.73
 20
81.0771
 30
0.0
 40
0.5
 41
0.5
  0
VERTEX
  8
0
 10
120.884
 20
81.0591
 30
0.0
 40
0.5
 41
0.5
  0
VERTEX
  8
0
 10
121.042
 20
81.009
 30
0.0
 40
0.5
 41
0.5
  0
VERTEX
  8
0
 10
120.854
 20
80.665
 30
0.0
 40
0.5
 41
0.5
  0
VERTEX
  8
0
 10
120.776
 20
80.707
 30
0.0
 40
0.5
 41
0.5
  0
VERTEX
  8
0
 10
120.694
 20
80.7371
 30
0.0
 40
0.5
 41
0.5
  0
VERTEX
  8
0
 10
120.654
 20
80.7429
 30
0.0
 40
0.5
 41
0.5
  0
VERTEX
  8
0
 10
120.614
 20
80.7451
 30
0.0
 40
0.5
 41
0.5
  0
VERTEX
  8
0
 10
120.356
 20
80.6331
 30
0.0
 40
0.5
 41
0.5
  0
VERTEX
  8
0
 10
120.222
 20
80.2852
 30
0.0
 40
0.5
 41
0.5
  0
VERTEX
  8
0
 10
120.222
 20
79.1851
 30
0.0
 40
0.5
 41
0.5
  0
VERTEX
  8
0
 10
119.846
 20
79.1851
 30
0.0
 40
0.5
 41
0.5
  0
VERTEX
  8
0
 10
119.846
 20
81.0449
 30
0.0
 40
0.5
 41
0.5
  0
VERTEX
  8
0
 10
120.222
 20
81.0449
 30
0.0
 40
0.5
 41
0.5
  0
VERTEX
  8
0
 10
120.222
 20
80.761
 30
0.0
 40
0.5
 41
0.5
  0
SEQEND
  8
0
  0
POLYLINE
8
0
 62
     0
 66
     1
 10
0
 20
0
 30
0.0
 70
     1
 40
0.5
 41
0.5
  0
VERTEX
  8
0
 10
177.342
 20
96.6628
 30
0.0
 40
0.5
 41
0.5
  0
VERTEX
  8
0
 10
177.342
 20
96.1909
 30
0.0
 40
0.5
 41
0.5
  0
VERTEX
  8
0
 10
177.108
 20
96.1069
 30
0.0
 40
0.5
 41
0.5
  0
VERTEX
  8
0
 10
176.854
 20
96.0789
 30
0.0
 40
0.5
 41
0.5
  0
VERTEX
  8
0
 10
176.822
 20
96.0789
 30
0.0
 40
0.5
 41
0.5
  0
VERTEX
  8
0
 10
176.79
 20
96.0789
 30
0.0
 40
0.5
 41
0.5
  0
VERTEX
  8
0
 10
176.13
 20
96.3389
 30
0.0
 40
0.5
 41
0.5
  0
VERTEX
  8
0
 10
175.83
 20
97.0669
 30
0.0
 40
0.5
 41
0.5
  0
VERTEX
  8
0
 10
176.136
 20
97.8469
 30
0.0
 40
0.5
 41
0.5
  0
VERTEX
  8
0
 10
176.83
 20
98.103
 30
0.0
 40
0.5
 41
0.5
  0
VERTEX
  8
0
 10
177.106
 20
98.075
 30
0.0
 40
0.5
 41
0.5
  0
VERTEX
  8
0
 10
177.37
 20
97.9829
 30
0.0
 40
0.5
 41
0.5
  0
VERTEX
  8
0
 10
177.37
 20
97.5149
 30
0.0
 40
0.5
 41
0.5
  0
VERTEX
  8
0
 10
177.268
 20
97.6169
 30
0.0
 40
0.5
 41
0.5
  0
VERTEX
  8
0
 10
177.162
 20
97.687
 30
0.0
 40
0.5
 41
0.5
  0
VERTEX
  8
0
 10
176.952
 20
97.7529
 30
0.0
 40
0.5
 41
0.5
  0
VERTEX
  8
0
 10
176.806
 20
97.7629
 30
0.0
 40
0.5
 41
0.5
  0
VERTEX
  8
0
 10
176.348
 20
97.5369
 30
0.0
 40
0.5
 41
0.5
  0
VERTEX
  8
0
 10
176.19
 20
97.0989
 30
0.0
 40
0.5
 41
0.5
  0
VERTEX
  8
0
 10
176.19
 20
97.093
 30
0.0
 40
0.5
 41
0.5
  0
VERTEX
  8
0
 10
176.19
 20
97.0869
 30
0.0
 40
0.5
 41
0.5
  0
VERTEX
  8
0
 10
176.34
 20
96.6409
 30
0.0
 40
0.5
 41
0.5
  0
VERTEX
  8
0
 10
176.778
 20
96.439
 30
0.0
 40
0.5
 41
0.5
  0
VERTEX
  8
0
 10
176.792
 20
96.439
 30
0.0
 40
0.5
 41
0.5
  0
VERTEX
  8
0
 10
176.806
 20
96.439
 30
0.0
 40
0.5
 41
0.5
  0
VERTEX
  8
0
 10
176.976
 20
96.457
 30
0.0
 40
0.5
 41
0.5
  0
VERTEX
  8
0
 10
177.254
 20
96.5869
 30
0.0
 40
0.5
 41
0.5
  0
VERTEX
  8
0
 10
177.3
 20
96.6208
 30
0.0
 40
0.5
 41
0.5
  0
VERTEX
  8
0
 10
177.342
 20
96.6589
 30
0.0
 40
0.5
 41
0.5
  0
VERTEX
  8
0
 10
177.342
 20
96.6628
 30
0.0
 40
0.5
 41
0.5
  0
SEQEND
  8
0
  0
POLYLINE
8
0
 62
     0
 66
     1
 10
0
 20
0
 30
0.0
 70
     1
 40
0.5
 41
0.5
  0
VERTEX
  8
0
 10
178.067
 20
99.623
 30
0.0
 40
0.5
 41
0.5
  0
VERTEX
  8
0
 10
178.067
 20
97.7949
 30
0.0
 40
0.5
 41
0.5
  0
VERTEX
  8
0
 10
178.313
 20
98.021
 30
0.0
 40
0.5
 41
0.5
  0
VERTEX
  8
0
 10
178.631
 20
98.1069
 30
0.0
 40
0.5
 41
0.5
  0
VERTEX
  8
0
 10
179.105
 20
97.959
 30
0.0
 40
0.5
 41
0.5
  0
VERTEX
  8
0
 10
179.295
 20
97.3831
 30
0.0
 40
0.5
 41
0.5
  0
VERTEX
  8
0
 10
179.295
 20
96.1589
 30
0.0
 40
0.5
 41
0.5
  0
VERTEX
  8
0
 10
178.947
 20
96.1589
 30
0.0
 40
0.5
 41
0.5
  0
VERTEX
  8
0
 10
178.947
 20
97.387
 30
0.0
 40
0.5
 41
0.5
  0
VERTEX
  8
0
 10
178.837
 20
97.679
 30
0.0
 40
0.5
 41
0.5
  0
VERTEX
  8
0
 10
178.539
 20
97.7629
 30
0.0
 40
0.5
 41
0.5
  0
VERTEX
  8
0
 10
178.173
 20
97.625
 30
0.0
 40
0.5
 41
0.5
  0
VERTEX
  8
0
 10
178.067
 20
97.2271
 30
0.0
 40
0.5
 41
0.5
  0
VERTEX
  8
0
 10
178.067
 20
96.1589
 30
0.0
 40
0.5
 41
0.5
  0
VERTEX
  8
0
 10
177.687
 20
96.1589
 30
0.0
 40
0.5
 41
0.5
  0
VERTEX
  8
0
 10
177.687
 20
99.623
 30
0.0
 40
0.5
 41
0.5
  0
VERTEX
  8
0
 10
178.067
 20
99.623
 30
0.0
 40
0.5
 41
0.5
  0
SEQEND
  8
0
  0
POLYLINE
8
0
 62
     0
 66
     1
 10
0
 20
0
 30
0.0
 70
     1
 40
0.5
 41
0.5
  0
VERTEX
  8
0
 10
180.681
 20
97.6069
 30
0.0
 40
0.5
 41
0.5
  0
VERTEX
  8
0
 10
180.681
 20
97.291
 30
0.0
 40
0.5
 41
0.5
  0
VERTEX
  8
0
 10
179.798
 20
97.291
 30
0.0
 40
0.5
 41
0.5
  0
VERTEX
  8
0
 10
179.798
 20
97.6069
 30
0.0
 40
0.5
 41
0.5
  0
VERTEX
  8
0
 10
180.681
 20
97.6069
 30
0.0
 40
0.5
 41
0.5
  0
SEQEND
  8
0
  0
POLYLINE
8
0
 62
     0
 66
     1
 10
0
 20
0
 30
0.0
 70
     1
 40
0.5
 41
0.5
  0
VERTEX
  8
0
 10
181.376
 20
98.835
 30
0.0
 40
0.5
 41
0.5
  0
VERTEX
  8
0
 10
181.596
 20
99.2148
 30
0.0
 40
0.5
 41
0.5
  0
VERTEX
  8
0
 10
182.26
 20
99.2148
 30
0.0
 40
0.5
 41
0.5
  0
VERTEX
  8
0
 10
182.26
 20
96.1589
 30
0.0
 40
0.5
 41
0.5
  0
VERTEX
  8
0
 10
181.88
 20
96.1589
 30
0.0
 40
0.5
 41
0.5
  0
VERTEX
  8
0
 10
181.88
 20
98.835
 30
0.0
 40
0.5
 41
0.5
  0
VERTEX
  8
0
 10
181.376
 20
98.835
 30
0.0
 40
0.5
 41
0.5
  0
SEQEND
  8
0
  0
POLYLINE
8
0
 62
     0
 66
     1
 10
0
 20
0
 30
0.0
 70
     1
 40
0.5
 41
0.5
  0
VERTEX
  8
0
 10
64.8503
 20
102.093
 30
0.0
 40
0.5
 41
0.5
  0
VERTEX
  8
0
 10
81.4268
 20
102.093
 30
0.0
 40
0.5
 41
0.5
  0
VERTEX
  8
0
 10
81.4268
 20
83.5313
 30
0.0
 40
0.5
 41
0.5
  0
VERTEX
  8
0
 10
64.8503
 20
83.5313
 30
0.0
 40
0.5
 41
0.5
  0
VERTEX
  8
0
 10
64.8503
 20
102.093
 30
0.0
 40
0.5
 41
0.5
  0
SEQEND
  8
0
  0
POLYLINE
8
0
 62
     0
 66
     1
 10
0
 20
0
 30
0.0
 70
     1
 40
0.5
 41
0.5
  0
VERTEX
  8
0
 10
74.4216
 20
88.0232
 30
0.0
 40
0.5
 41
0.5
  0
VERTEX
  8
0
 10
74.1123
 20
88.4324
 30
0.0
 40
0.5
 41
0.5
  0
VERTEX
  8
0
 10
74.23
 20
88.561
 30
0.0
 40
0.5
 41
0.5
  0
VERTEX
  8
0
 10
74.094
 20
88.6292
 30
0.0
 40
0.5
 41
0.5
  0
VERTEX
  8
0
 10
73.8469
 20
88.4233
 30
0.0
 40
0.5
 41
0.5
  0
VERTEX
  8
0
 10
74.0876
 20
88.3464
 30
0.0
 40
0.5
 41
0.5
  0
VERTEX
  8
0
 10
74.1077
 20
87.896
 30
0.0
 40
0.5
 41
0.5
  0
VERTEX
  8
0
 10
74.2996
 20
88.0125
 30
0.0
 40
0.5
 41
0.5
  0
VERTEX
  8
0
 10
74.4216
 20
88.0232
 30
0.0
 40
0.5
 41
0.5
  0
SEQEND
  8
0
  0
POLYLINE
8
0
 62
     0
 66
     1
 10
0
 20
0
 30
0.0
 70
     1
 40
0.5
 41
0.5
  0
VERTEX
  8
0
 10
74.7219
 20
92.844
 30
0.0
 40
0.5
 41
0.5
  0
VERTEX
  8
0
 10
74.8337
 20
92.7273
 30
0.0
 40
0.5
 41
0.5
  0
VERTEX
  8
0
 10
75.0518
 20
93.3062
 30
0.0
 40
0.5
 41
0.5
  0
VERTEX
  8
0
 10
74.6548
 20
93.9861
 30
0.0
 40
0.5
 41
0.5
  0
VERTEX
  8
0
 10
74.4338
 20
93.7969
 30
0.0
 40
0.5
 41
0.5
  0
VERTEX
  8
0
 10
74.5637
 20
93.7891
 30
0.0
 40
0.5
 41
0.5
  0
VERTEX
  8
0
 10
74.7307
 20
93.2766
 30
0.0
 40
0.5
 41
0.5
  0
VERTEX
  8
0
 10
74.8933
 20
92.989
 30
0.0
 40
0.5
 41
0.5
  0
VERTEX
  8
0
 10
74.7219
 20
92.844
 30
0.0
 40
0.5
 41
0.5
  0
SEQEND
  8
0
  0
POLYLINE
8
0
 62
     0
 66
     1
 10
0
 20
0
 30
0.0
 70
     1
 40
0.5
 41
0.5
  0
VERTEX
  8
0
 10
74.4045
 20
93.2473
 30
0.0
 40
0.5
 41
0.5
  0
VERTEX
  8
0
 10
73.8806
 20
93.3364
 30
0.0
 40
0.5
 41
0.5
  0
VERTEX
  8
0
 10
73.822
 20
93.4568
 30
0.0
 40
0.5
 41
0.5
  0
VERTEX
  8
0
 10
73.21
 20
93.3208
 30
0.0
 40
0.5
 41
0.5
  0
VERTEX
  8
0
 10
73.4739
 20
92.9492
 30
0.0
 40
0.5
 41
0.5
  0
VERTEX
  8
0
 10
73.9143
 20
92.9438
 30
0.0
 40
0.5
 41
0.5
  0
VERTEX
  8
0
 10
74.2336
 20
93.0242
 30
0.0
 40
0.5
 41
0.5
  0
VERTEX
  8
0
 10
74.4045
 20
93.2473
 30
0.0
 40
0.5
 41
0.5
  0
SEQEND
  8
0
  0
POLYLINE
8
0
 62
     0
 66
     1
 10
0
 20
0
 30
0.0
 70
     1
 40
0.5
 41
0.5
  0
VERTEX
  8
0
 10
72.4622
 20
92.981
 30
0.0
 40
0.5
 41
0.5
  0
VERTEX
  8
0
 10
72.1221
 20
92.9128
 30
0.0
 40
0.5
 41
0.5
  0
VERTEX
  8
0
 10
72.2581
 20
92.3008
 30
0.0
 40
0.5
 41
0.5
  0
VERTEX
  8
0
 10
72.468
 20
92.5808
 30
0.0
 40
0.5
 41
0.5
  0
VERTEX
  8
0
 10
72.4622
 20
92.981
 30
0.0
 40
0.5
 41
0.5
  0
SEQEND
  8
0
  0
POLYLINE
8
0
 62
     0
 66
     1
 10
0
 20
0
 30
0.0
 70
     1
 40
0.5
 41
0.5
  0
VERTEX
  8
0
 10
69.8726
 20
91.8342
 30
0.0
 40
0.5
 41
0.5
  0
VERTEX
  8
0
 10
69.8101
 20
91.8928
 30
0.0
 40
0.5
 41
0.5
  0
VERTEX
  8
0
 10
69.8154
 20
91.5601
 30
0.0
 40
0.5
 41
0.5
  0
VERTEX
  8
0
 10
69.9487
 20
91.6069
 30
0.0
 40
0.5
 41
0.5
  0
VERTEX
  8
0
 10
70.0142
 20
91.4849
 30
0.0
 40
0.5
 41
0.5
  0
VERTEX
  8
0
 10
70.7019
 20
91.7756
 30
0.0
 40
0.5
 41
0.5
  0
VERTEX
  8
0
 10
71.374
 20
91.825
 30
0.0
 40
0.5
 41
0.5
  0
VERTEX
  8
0
 10
71.3203
 20
92.3386
 30
0.0
 40
0.5
 41
0.5
  0
VERTEX
  8
0
 10
71.7141
 20
92.1648
 30
0.0
 40
0.5
 41
0.5
  0
VERTEX
  8
0
 10
71.782
 20
92.8447
 30
0.0
 40
0.5
 41
0.5
  0
VERTEX
  8
0
 10
71.0901
 20
93.3801
 30
0.0
 40
0.5
 41
0.5
  0
VERTEX
  8
0
 10
70.9709
 20
93.3191
 30
0.0
 40
0.5
 41
0.5
  0
VERTEX
  8
0
 10
71.155
 20
93.0488
 30
0.0
 40
0.5
 41
0.5
  0
VERTEX
  8
0
 10
71.0313
 20
92.9182
 30
0.0
 40
0.5
 41
0.5
  0
VERTEX
  8
0
 10
70.8333
 20
93.041
 30
0.0
 40
0.5
 41
0.5
  0
VERTEX
  8
0
 10
70.7014
 20
92.9312
 30
0.0
 40
0.5
 41
0.5
  0
VERTEX
  8
0
 10
70.2256
 20
92.821
 30
0.0
 40
0.5
 41
0.5
  0
VERTEX
  8
0
 10
69.925
 20
92.3853
 30
0.0
 40
0.5
 41
0.5
  0
VERTEX
  8
0
 10
69.8726
 20
91.8342
 30
0.0
 40
0.5
 41
0.5
  0
SEQEND
  8
0
  0
POLYLINE
8
0
 62
     0
 66
     1
 10
0
 20
0
 30
0.0
 70
     1
 40
0.5
 41
0.5
  0
VERTEX
  8
0
 10
72.2761
 20
93.9177
 30
0.0
 40
0.5
 41
0.5
  0
VERTEX
  8
0
 10
72.5183
 20
94.075
 30
0.0
 40
0.5
 41
0.5
  0
VERTEX
  8
0
 10
72.4609
 20
94.27
 30
0.0
 40
0.5
 41
0.5
  0
VERTEX
  8
0
 10
72.1428
 20
94.1895
 30
0.0
 40
0.5
 41
0.5
  0
VERTEX
  8
0
 10
72.2415
 20
94.1453
 30
0.0
 40
0.5
 41
0.5
  0
VERTEX
  8
0
 10
71.4016
 20
93.4419
 30
0.0
 40
0.5
 41
0.5
  0
VERTEX
  8
0
 10
71.5781
 20
93.2529
 30
0.0
 40
0.5
 41
0.5
  0
VERTEX
  8
0
 10
71.5828
 20
93.3872
 30
0.0
 40
0.5
 41
0.5
  0
VERTEX
  8
0
 10
71.7136
 20
93.4639
 30
0.0
 40
0.5
 41
0.5
  0
VERTEX
  8
0
 10
72.2761
 20
93.9177
 30
0.0
 40
0.5
 41
0.5
  0
SEQEND
  8
0
  0
POLYLINE
8
0
 62
     0
 66
     1
 10
0
 20
0
 30
0.0
 70
     1
 40
0.5
 41
0.5
  0
VERTEX
  8
0
 10
69.042
 20
92.8865
 30
0.0
 40
0.5
 41
0.5
  0
VERTEX
  8
0
 10
69.3066
 20
93.2961
 30
0.0
 40
0.5
 41
0.5
  0
VERTEX
  8
0
 10
69.3647
 20
93.8596
 30
0.0
 40
0.5
 41
0.5
  0
VERTEX
  8
0
 10
69.5315
 20
93.9109
 30
0.0
 40
0.5
 41
0.5
  0
VERTEX
  8
0
 10
69.707
 20
93.8813
 30
0.0
 40
0.5
 41
0.5
  0
VERTEX
  8
0
 10
70.1187
 20
94.1394
 30
0.0
 40
0.5
 41
0.5
  0
VERTEX
  8
0
 10
70.3225
 20
94.3994
 30
0.0
 40
0.5
 41
0.5
  0
VERTEX
  8
0
 10
70.218
 20
94.7488
 30
0.0
 40
0.5
 41
0.5
  0
VERTEX
  8
0
 10
70.0142
 20
94.8848
 30
0.0
 40
0.5
 41
0.5
  0
VERTEX
  8
0
 10
70.2239
 20
95.2688
 30
0.0
 40
0.5
 41
0.5
  0
VERTEX
  8
0
 10
70.5183
 20
95.1216
 30
0.0
 40
0.5
 41
0.5
  0
VERTEX
  8
0
 10
70.4902
 20
94.7488
 30
0.0
 40
0.5
 41
0.5
  0
VERTEX
  8
0
 10
70.6262
 20
94.8167
 30
0.0
 40
0.5
 41
0.5
  0
VERTEX
  8
0
 10
70.6887
 20
94.4275
 30
0.0
 40
0.5
 41
0.5
  0
VERTEX
  8
0
 10
70.4902
 20
94.5447
 30
0.0
 40
0.5
 41
0.5
  0
VERTEX
  8
0
 10
70.9167
 20
93.5337
 30
0.0
 40
0.5
 41
0.5
  0
VERTEX
  8
0
 10
71.1021
 20
93.5249
 30
0.0
 40
0.5
 41
0.5
  0
VERTEX
  8
0
 10
71.238
 20
94.2048
 30
0.0
 40
0.5
 41
0.5
  0
VERTEX
  8
0
 10
70.9077
 20
94.5439
 30
0.0
 40
0.5
 41
0.5
  0
VERTEX
  8
0
 10
71.0264
 20
94.6047
 30
0.0
 40
0.5
 41
0.5
  0
VERTEX
  8
0
 10
71.4094
 20
94.5488
 30
0.0
 40
0.5
 41
0.5
  0
VERTEX
  8
0
 10
71.1179
 20
95.2209
 30
0.0
 40
0.5
 41
0.5
  0
VERTEX
  8
0
 10
71.4421
 20
95.3608
 30
0.0
 40
0.5
 41
0.5
  0
VERTEX
  8
0
 10
71.5115
 20
95.4883
 30
0.0
 40
0.5
 41
0.5
  0
VERTEX
  8
0
 10
72.0532
 20
94.9624
 30
0.0
 40
0.5
 41
0.5
  0
VERTEX
  8
0
 10
72.1174
 20
95.0862
 30
0.0
 40
0.5
 41
0.5
  0
VERTEX
  8
0
 10
71.8521
 20
95.4963
 30
0.0
 40
0.5
 41
0.5
  0
VERTEX
  8
0
 10
71.8655
 20
96.3198
 30
0.0
 40
0.5
 41
0.5
  0
VERTEX
  8
0
 10
71.4248
 20
95.6873
 30
0.0
 40
0.5
 41
0.5
  0
VERTEX
  8
0
 10
70.7622
 20
96.2446
 30
0.0
 40
0.5
 41
0.5
  0
VERTEX
  8
0
 10
70.1794
 20
95.6145
 30
0.0
 40
0.5
 41
0.5
  0
VERTEX
  8
0
 10
69.7913
 20
94.8962
 30
0.0
 40
0.5
 41
0.5
  0
VERTEX
  8
0
 10
68.6731
 20
93.374
 30
0.0
 40
0.5
 41
0.5
  0
VERTEX
  8
0
 10
68.6699
 20
93.0569
 30
0.0
 40
0.5
 41
0.5
  0
VERTEX
  8
0
 10
69.042
 20
92.8865
 30
0.0
 40
0.5
 41
0.5
  0
SEQEND
  8
0
  0
POLYLINE
8
0
 62
     0
 66
     1
 10
0
 20
0
 30
0.0
 70
     1
 40
0.5
 41
0.5
  0
VERTEX
  8
0
 10
72.938
 20
96.5168
 30
0.0
 40
0.5
 41
0.5
  0
VERTEX
  8
0
 10
73.2681
 20
96.0913
 30
0.0
 40
0.5
 41
0.5
  0
VERTEX
  8
0
 10
74.366
 20
96.3127
 30
0.0
 40
0.5
 41
0.5
  0
VERTEX
  8
0
 10
74.5847
 20
96.7808
 30
0.0
 40
0.5
 41
0.5
  0
VERTEX
  8
0
 10
74.7061
 20
96.7207
 30
0.0
 40
0.5
 41
0.5
  0
VERTEX
  8
0
 10
74.6096
 20
96.9739
 30
0.0
 40
0.5
 41
0.5
  0
VERTEX
  8
0
 10
74.2227
 20
97.1113
 30
0.0
 40
0.5
 41
0.5
  0
VERTEX
  8
0
 10
73.822
 20
96.8567
 30
0.0
 40
0.5
 41
0.5
  0
VERTEX
  8
0
 10
73.3508
 20
96.8882
 30
0.0
 40
0.5
 41
0.5
  0
VERTEX
  8
0
 10
72.938
 20
96.5168
 30
0.0
 40
0.5
 41
0.5
  0
SEQEND
  8
0
  0
POLYLINE
8
0
 62
     0
 66
     1
 10
0
 20
0
 30
0.0
 70
     1
 40
0.5
 41
0.5
  0
VERTEX
  8
0
 10
69.8494
 20
97.3804
 30
0.0
 40
0.5
 41
0.5
  0
VERTEX
  8
0
 10
69.5381
 20
96.6528
 30
0.0
 40
0.5
 41
0.5
  0
VERTEX
  8
0
 10
69.4036
 20
96.7175
 30
0.0
 40
0.5
 41
0.5
  0
VERTEX
  8
0
 10
69.3403
 20
96.5889
 30
0.0
 40
0.5
 41
0.5
  0
VERTEX
  8
0
 10
69.3943
 20
96.4565
 30
0.0
 40
0.5
 41
0.5
  0
VERTEX
  8
0
 10
68.9075
 20
96.0667
 30
0.0
 40
0.5
 41
0.5
  0
VERTEX
  8
0
 10
68.7429
 20
95.5728
 30
0.0
 40
0.5
 41
0.5
  0
VERTEX
  8
0
 10
69.0623
 20
95.4287
 30
0.0
 40
0.5
 41
0.5
  0
VERTEX
  8
0
 10
69.1833
 20
95.7639
 30
0.0
 40
0.5
 41
0.5
  0
VERTEX
  8
0
 10
69.2332
 20
96.1257
 30
0.0
 40
0.5
 41
0.5
  0
VERTEX
  8
0
 10
69.5081
 20
96.437
 30
0.0
 40
0.5
 41
0.5
  0
VERTEX
  8
0
 10
69.8962
 20
96.7112
 30
0.0
 40
0.5
 41
0.5
  0
VERTEX
  8
0
 10
70.0762
 20
96.731
 30
0.0
 40
0.5
 41
0.5
  0
VERTEX
  8
0
 10
70.5581
 20
96.9246
 30
0.0
 40
0.5
 41
0.5
  0
VERTEX
  8
0
 10
70.6279
 20
97.0562
 30
0.0
 40
0.5
 41
0.5
  0
VERTEX
  8
0
 10
70.8679
 20
96.8621
 30
0.0
 40
0.5
 41
0.5
  0
VERTEX
  8
0
 10
70.3542
 20
96.7207
 30
0.0
 40
0.5
 41
0.5
  0
VERTEX
  8
0
 10
70.4236
 20
96.5881
 30
0.0
 40
0.5
 41
0.5
  0
VERTEX
  8
0
 10
70.7615
 20
96.6511
 30
0.0
 40
0.5
 41
0.5
  0
VERTEX
  8
0
 10
70.8418
 20
96.4634
 30
0.0
 40
0.5
 41
0.5
  0
VERTEX
  8
0
 10
71.1021
 20
96.5168
 30
0.0
 40
0.5
 41
0.5
  0
VERTEX
  8
0
 10
70.9063
 20
96.5833
 30
0.0
 40
0.5
 41
0.5
  0
VERTEX
  8
0
 10
70.7708
 20
96.7192
 30
0.0
 40
0.5
 41
0.5
  0
VERTEX
  8
0
 10
70.9661
 20
96.9927
 30
0.0
 40
0.5
 41
0.5
  0
VERTEX
  8
0
 10
70.8394
 20
97.0618
 30
0.0
 40
0.5
 41
0.5
  0
VERTEX
  8
0
 10
71.1619
 20
97.2664
 30
0.0
 40
0.5
 41
0.5
  0
VERTEX
  8
0
 10
71.1482
 20
97.7927
 30
0.0
 40
0.5
 41
0.5
  0
VERTEX
  8
0
 10
71.4314
 20
98.0247
 30
0.0
 40
0.5
 41
0.5
  0
VERTEX
  8
0
 10
71.6523
 20
97.6648
 30
0.0
 40
0.5
 41
0.5
  0
VERTEX
  8
0
 10
71.374
 20
97.1287
 30
0.0
 40
0.5
 41
0.5
  0
VERTEX
  8
0
 10
71.51
 20
97.1965
 30
0.0
 40
0.5
 41
0.5
  0
VERTEX
  8
0
 10
71.6489
 20
97.0657
 30
0.0
 40
0.5
 41
0.5
  0
VERTEX
  8
0
 10
71.7749
 20
97.1304
 30
0.0
 40
0.5
 41
0.5
  0
VERTEX
  8
0
 10
71.7141
 20
97.3325
 30
0.0
 40
0.5
 41
0.5
  0
VERTEX
  8
0
 10
72.03
 20
97.4163
 30
0.0
 40
0.5
 41
0.5
  0
VERTEX
  8
0
 10
71.9417
 20
97.884
 30
0.0
 40
0.5
 41
0.5
  0
VERTEX
  8
0
 10
71.9773
 20
98.4175
 30
0.0
 40
0.5
 41
0.5
  0
VERTEX
  8
0
 10
71.8528
 20
98.5391
 30
0.0
 40
0.5
 41
0.5
  0
VERTEX
  8
0
 10
71.573
 20
98.2212
 30
0.0
 40
0.5
 41
0.5
  0
VERTEX
  8
0
 10
71.3882
 20
98.2773
 30
0.0
 40
0.5
 41
0.5
  0
VERTEX
  8
0
 10
71.3049
 20
98.1575
 30
0.0
 40
0.5
 41
0.5
  0
VERTEX
  8
0
 10
71.0342
 20
98.2166
 30
0.0
 40
0.5
 41
0.5
  0
VERTEX
  8
0
 10
70.5105
 20
98.0513
 30
0.0
 40
0.5
 41
0.5
  0
VERTEX
  8
0
 10
69.8494
 20
97.3804
 30
0.0
 40
0.5
 41
0.5
  0
SEQEND
  8
0
  0
POLYLINE
8
0
 62
     0
 66
     1
 10
0
 20
0
 30
0.0
 70
     1
 40
0.5
 41
0.5
  0
VERTEX
  8
0
 10
74.2979
 20
87.269
 30
0.0
 40
0.5
 41
0.5
  0
VERTEX
  8
0
 10
74.0178
 20
87.6416
 30
0.0
 40
0.5
 41
0.5
  0
VERTEX
  8
0
 10
73.8293
 20
87.3386
 30
0.0
 40
0.5
 41
0.5
  0
VERTEX
  8
0
 10
73.9465
 20
87.2539
 30
0.0
 40
0.5
 41
0.5
  0
VERTEX
  8
0
 10
74.2979
 20
87.269
 30
0.0
 40
0.5
 41
0.5
  0
SEQEND
  8
0
  0
POLYLINE
8
0
 62
     0
 66
     1
 10
0
 20
0
 30
0.0
 70
     1
 40
0.5
 41
0.5
  0
VERTEX
  8
0
 10
70.4221
 20
88.4929
 30
0.0
 40
0.5
 41
0.5
  0
VERTEX
  8
0
 10
70.5508
 20
88.6448
 30
0.0
 40
0.5
 41
0.5
  0
VERTEX
  8
0
 10
70.5034
 20
88.7678
 30
0.0
 40
0.5
 41
0.5
  0
VERTEX
  8
0
 10
70.6262
 20
89.0369
 30
0.0
 40
0.5
 41
0.5
  0
VERTEX
  8
0
 10
70.165
 20
88.8018
 30
0.0
 40
0.5
 41
0.5
  0
VERTEX
  8
0
 10
70.2881
 20
88.5635
 30
0.0
 40
0.5
 41
0.5
  0
VERTEX
  8
0
 10
70.4221
 20
88.4929
 30
0.0
 40
0.5
 41
0.5
  0
SEQEND
  8
0
  0
POLYLINE
8
0
 62
     0
 66
     1
 10
0
 20
0
 30
0.0
 70
     1
 40
0.5
 41
0.5
  0
VERTEX
  8
0
 10
72.8208
 20
85.408
 30
0.0
 40
0.5
 41
0.5
  0
VERTEX
  8
0
 10
73.4392
 20
85.5874
 30
0.0
 40
0.5
 41
0.5
  0
VERTEX
  8
0
 10
73.6248
 20
86.2327
 30
0.0
 40
0.5
 41
0.5
  0
VERTEX
  8
0
 10
73.0183
 20
86.2942
 30
0.0
 40
0.5
 41
0.5
  0
VERTEX
  8
0
 10
72.6333
 20
85.8567
 30
0.0
 40
0.5
 41
0.5
  0
VERTEX
  8
0
 10
72.8208
 20
85.408
 30
0.0
 40
0.5
 41
0.5
  0
SEQEND
  8
0
  0
POLYLINE
8
0
 62
     0
 66
     1
 10
0
 20
0
 30
0.0
 70
     1
 40
0.5
 41
0.5
  0
VERTEX
  8
0
 10
73.4863
 20
87.3752
 30
0.0
 40
0.5
 41
0.5
  0
VERTEX
  8
0
 10
73.6663
 20
87.6636
 30
0.0
 40
0.5
 41
0.5
  0
VERTEX
  8
0
 10
73.7542
 20
88.2209
 30
0.0
 40
0.5
 41
0.5
  0
VERTEX
  8
0
 10
72.8904
 20
88.1187
 30
0.0
 40
0.5
 41
0.5
  0
VERTEX
  8
0
 10
72.4714
 20
87.917
 30
0.0
 40
0.5
 41
0.5
  0
VERTEX
  8
0
 10
72.123
 20
87.8015
 30
0.0
 40
0.5
 41
0.5
  0
VERTEX
  8
0
 10
72.0674
 20
87.6233
 30
0.0
 40
0.5
 41
0.5
  0
VERTEX
  8
0
 10
72.5408
 20
87.1416
 30
0.0
 40
0.5
 41
0.5
  0
VERTEX
  8
0
 10
72.6689
 20
87.188
 30
0.0
 40
0.5
 41
0.5
  0
VERTEX
  8
0
 10
73.4863
 20
87.3752
 30
0.0
 40
0.5
 41
0.5
  0
SEQEND
  8
0
  0
POLYLINE
8
0
 62
     0
 66
     1
 10
0
 20
0
 30
0.0
 70
     1
 40
0.5
 41
0.5
  0
VERTEX
  8
0
 10
72.7668
 20
98.2629
 30
0.0
 40
0.5
 41
0.5
  0
VERTEX
  8
0
 10
72.885
 20
97.6946
 30
0.0
 40
0.5
 41
0.5
  0
VERTEX
  8
0
 10
73.4709
 20
97.7007
 30
0.0
 40
0.5
 41
0.5
  0
VERTEX
  8
0
 10
73.7676
 20
98.083
 30
0.0
 40
0.5
 41
0.5
  0
VERTEX
  8
0
 10
73.8835
 20
98.1411
 30
0.0
 40
0.5
 41
0.5
  0
VERTEX
  8
0
 10
74.0444
 20
97.9504
 30
0.0
 40
0.5
 41
0.5
  0
VERTEX
  8
0
 10
74.1663
 20
98.0063
 30
0.0
 40
0.5
 41
0.5
  0
VERTEX
  8
0
 10
74.3008
 20
97.958
 30
0.0
 40
0.5
 41
0.5
  0
VERTEX
  8
0
 10
74.5698
 20
98.0806
 30
0.0
 40
0.5
 41
0.5
  0
VERTEX
  8
0
 10
74.3262
 20
98.5195
 30
0.0
 40
0.5
 41
0.5
  0
VERTEX
  8
0
 10
73.958
 20
98.8286
 30
0.0
 40
0.5
 41
0.5
  0
VERTEX
  8
0
 10
73.9531
 20
98.6943
 30
0.0
 40
0.5
 41
0.5
  0
VERTEX
  8
0
 10
73.8303
 20
98.6328
 30
0.0
 40
0.5
 41
0.5
  0
VERTEX
  8
0
 10
73.4141
 20
98.8967
 30
0.0
 40
0.5
 41
0.5
  0
VERTEX
  8
0
 10
73.4063
 20
98.7668
 30
0.0
 40
0.5
 41
0.5
  0
VERTEX
  8
0
 10
72.7668
 20
98.2629
 30
0.0
 40
0.5
 41
0.5
  0
SEQEND
  8
0
  0
POLYLINE
8
0
 62
     0
 66
     1
 10
0
 20
0
 30
0.0
 70
     1
 40
0.5
 41
0.5
  0
VERTEX
  8
0
 10
72.575
 20
90.2805
 30
0.0
 40
0.5
 41
0.5
  0
VERTEX
  8
0
 10
72.3997
 20
89.9224
 30
0.0
 40
0.5
 41
0.5
  0
VERTEX
  8
0
 10
72.5894
 20
89.866
 30
0.0
 40
0.5
 41
0.5
  0
VERTEX
  8
0
 10
72.53
 20
89.989
 30
0.0
 40
0.5
 41
0.5
  0
VERTEX
  8
0
 10
72.7268
 20
90.1655
 30
0.0
 40
0.5
 41
0.5
  0
VERTEX
  8
0
 10
73.4653
 20
90.6074
 30
0.0
 40
0.5
 41
0.5
  0
VERTEX
  8
0
 10
73.3667
 20
90.8743
 30
0.0
 40
0.5
 41
0.5
  0
VERTEX
  8
0
 10
73.1851
 20
91.3796
 30
0.0
 40
0.5
 41
0.5
  0
VERTEX
  8
0
 10
72.53
 20
91.2129
 30
0.0
 40
0.5
 41
0.5
  0
VERTEX
  8
0
 10
72.5991
 20
90.6689
 30
0.0
 40
0.5
 41
0.5
  0
VERTEX
  8
0
 10
72.575
 20
90.2805
 30
0.0
 40
0.5
 41
0.5
  0
SEQEND
  8
0
  0
POLYLINE
8
0
 62
     0
 66
     1
 10
0
 20
0
 30
0.0
 70
     1
 40
0.5
 41
0.5
  0
VERTEX
  8
0
 10
69.4634
 20
89.8923
 30
0.0
 40
0.5
 41
0.5
  0
VERTEX
  8
0
 10
70.0908
 20
90.0999
 30
0.0
 40
0.5
 41
0.5
  0
VERTEX
  8
0
 10
70.9702
 20
89.8713
 30
0.0
 40
0.5
 41
0.5
  0
VERTEX
  8
0
 10
71.1021
 20
89.989
 30
0.0
 40
0.5
 41
0.5
  0
VERTEX
  8
0
 10
71.2246
 20
89.8513
 30
0.0
 40
0.5
 41
0.5
  0
VERTEX
  8
0
 10
70.6262
 20
89.3088
 30
0.0
 40
0.5
 41
0.5
  0
VERTEX
  8
0
 10
70.8982
 20
89.377
 30
0.0
 40
0.5
 41
0.5
  0
VERTEX
  8
0
 10
70.9661
 20
89.241
 30
0.0
 40
0.5
 41
0.5
  0
VERTEX
  8
0
 10
71.5095
 20
89.3069
 30
0.0
 40
0.5
 41
0.5
  0
VERTEX
  8
0
 10
71.6045
 20
88.9644
 30
0.0
 40
0.5
 41
0.5
  0
VERTEX
  8
0
 10
71.1702
 20
88.9011
 30
0.0
 40
0.5
 41
0.5
  0
VERTEX
  8
0
 10
71.374
 20
88.2891
 30
0.0
 40
0.5
 41
0.5
  0
VERTEX
  8
0
 10
72.0623
 20
88.825
 30
0.0
 40
0.5
 41
0.5
  0
VERTEX
  8
0
 10
72.1853
 20
88.7634
 30
0.0
 40
0.5
 41
0.5
  0
VERTEX
  8
0
 10
72.1899
 20
88.6292
 30
0.0
 40
0.5
 41
0.5
  0
VERTEX
  8
0
 10
72.6729
 20
88.8875
 30
0.0
 40
0.5
 41
0.5
  0
VERTEX
  8
0
 10
73.0061
 20
88.6292
 30
0.0
 40
0.5
 41
0.5
  0
VERTEX
  8
0
 10
72.938
 20
88.7651
 30
0.0
 40
0.5
 41
0.5
  0
VERTEX
  8
0
 10
73.3459
 20
89.3088
 30
0.0
 40
0.5
 41
0.5
  0
VERTEX
  8
0
 10
73.4819
 20
89.105
 30
0.0
 40
0.5
 41
0.5
  0
VERTEX
  8
0
 10
73.6721
 20
89.0935
 30
0.0
 40
0.5
 41
0.5
  0
VERTEX
  8
0
 10
74.2402
 20
88.8125
 30
0.0
 40
0.5
 41
0.5
  0
VERTEX
  8
0
 10
74.9063
 20
88.7473
 30
0.0
 40
0.5
 41
0.5
  0
VERTEX
  8
0
 10
75.114
 20
88.561
 30
0.0
 40
0.5
 41
0.5
  0
VERTEX
  8
0
 10
75.3855
 20
88.8167
 30
0.0
 40
0.5
 41
0.5
  0
VERTEX
  8
0
 10
75.9065
 20
88.5525
 30
0.0
 40
0.5
 41
0.5
  0
VERTEX
  8
0
 10
76.2383
 20
87.5249
 30
0.0
 40
0.5
 41
0.5
  0
VERTEX
  8
0
 10
76.1772
 20
86.3821
 30
0.0
 40
0.5
 41
0.5
  0
VERTEX
  8
0
 10
76.5957
 20
86.0422
 30
0.0
 40
0.5
 41
0.5
  0
VERTEX
  8
0
 10
76.478
 20
85.9834
 30
0.0
 40
0.5
 41
0.5
  0
VERTEX
  8
0
 10
76.3408
 20
86.04
 30
0.0
 40
0.5
 41
0.5
  0
VERTEX
  8
0
 10
76.2202
 20
85.9133
 30
0.0
 40
0.5
 41
0.5
  0
VERTEX
  8
0
 10
76.187
 20
84.4753
 30
0.0
 40
0.5
 41
0.5
  0
VERTEX
  8
0
 10
76.0688
 20
84.4182
 30
0.0
 40
0.5
 41
0.5
  0
VERTEX
  8
0
 10
75.9272
 20
84.5381
 30
0.0
 40
0.5
 41
0.5
  0
VERTEX
  8
0
 10
75.3958
 20
84.4358
 30
0.0
 40
0.5
 41
0.5
  0
VERTEX
  8
0
 10
74.978
 20
84.6172
 30
0.0
 40
0.5
 41
0.5
  0
VERTEX
  8
0
 10
74.5732
 20
84.4207
 30
0.0
 40
0.5
 41
0.5
  0
VERTEX
  8
0
 10
74.4343
 20
84.5496
 30
0.0
 40
0.5
 41
0.5
  0
VERTEX
  8
0
 10
74.4338
 20
84.821
 30
0.0
 40
0.5
 41
0.5
  0
VERTEX
  8
0
 10
74.4202
 20
84.5574
 30
0.0
 40
0.5
 41
0.5
  0
VERTEX
  8
0
 10
74.0259
 20
84.6851
 30
0.0
 40
0.5
 41
0.5
  0
VERTEX
  8
0
 10
73.0034
 20
84.4478
 30
0.0
 40
0.5
 41
0.5
  0
VERTEX
  8
0
 10
72.1497
 20
84.4648
 30
0.0
 40
0.5
 41
0.5
  0
VERTEX
  8
0
 10
71.1848
 20
84.6477
 30
0.0
 40
0.5
 41
0.5
  0
VERTEX
  8
0
 10
70.6509
 20
85.165
 30
0.0
 40
0.5
 41
0.5
  0
VERTEX
  8
0
 10
70.2861
 20
85.9092
 30
0.0
 40
0.5
 41
0.5
  0
VERTEX
  8
0
 10
70.2979
 20
86.447
 30
0.0
 40
0.5
 41
0.5
  0
VERTEX
  8
0
 10
70.5481
 20
86.731
 30
0.0
 40
0.5
 41
0.5
  0
VERTEX
  8
0
 10
70.4412
 20
87.1899
 30
0.0
 40
0.5
 41
0.5
  0
VERTEX
  8
0
 10
70.8982
 20
87.8811
 30
0.0
 40
0.5
 41
0.5
  0
VERTEX
  8
0
 10
70.552
 20
87.7083
 30
0.0
 40
0.5
 41
0.5
  0
VERTEX
  8
0
 10
70.322
 20
87.896
 30
0.0
 40
0.5
 41
0.5
  0
VERTEX
  8
0
 10
70.1533
 20
88.1116
 30
0.0
 40
0.5
 41
0.5
  0
VERTEX
  8
0
 10
69.946
 20
87.677
 30
0.0
 40
0.5
 41
0.5
  0
VERTEX
  8
0
 10
70.2678
 20
87.5374
 30
0.0
 40
0.5
 41
0.5
  0
VERTEX
  8
0
 10
70.147
 20
87.4138
 30
0.0
 40
0.5
 41
0.5
  0
VERTEX
  8
0
 10
69.8083
 20
87.4648
 30
0.0
 40
0.5
 41
0.5
  0
VERTEX
  8
0
 10
69.6741
 20
87.813
 30
0.0
 40
0.5
 41
0.5
  0
VERTEX
  8
0
 10
69.1982
 20
87.6091
 30
0.0
 40
0.5
 41
0.5
  0
VERTEX
  8
0
 10
69.3311
 20
87.5396
 30
0.0
 40
0.5
 41
0.5
  0
VERTEX
  8
0
 10
69.2651
 20
87.4143
 30
0.0
 40
0.5
 41
0.5
  0
VERTEX
  8
0
 10
68.6113
 20
87.4954
 30
0.0
 40
0.5
 41
0.5
  0
VERTEX
  8
0
 10
67.801
 20
87.8271
 30
0.0
 40
0.5
 41
0.5
  0
VERTEX
  8
0
 10
66.8186
 20
87.7275
 30
0.0
 40
0.5
 41
0.5
  0
VERTEX
  8
0
 10
66.5156
 20
88.4875
 30
0.0
 40
0.5
 41
0.5
  0
VERTEX
  8
0
 10
67.0283
 20
88.874
 30
0.0
 40
0.5
 41
0.5
  0
VERTEX
  8
0
 10
67.4343
 20
88.9209
 30
0.0
 40
0.5
 41
0.5
  0
VERTEX
  8
0
 10
68.1018
 20
89.2021
 30
0.0
 40
0.5
 41
0.5
  0
VERTEX
  8
0
 10
68.573
 20
89.283
 30
0.0
 40
0.5
 41
0.5
  0
VERTEX
  8
0
 10
69.2036
 20
89.6355
 30
0.0
 40
0.5
 41
0.5
  0
VERTEX
  8
0
 10
69.4634
 20
89.8923
 30
0.0
 40
0.5
 41
0.5
  0
SEQEND
  8
0
  0
POLYLINE
8
0
 62
     0
 66
     1
 10
0
 20
0
 30
0.0
 70
     1
 40
0.5
 41
0.5
  0
VERTEX
  8
0
 10
69.481
 20
99.1067
 30
0.0
 40
0.5
 41
0.5
  0
VERTEX
  8
0
 10
69.0054
 20
99.5964
 30
0.0
 40
0.5
 41
0.5
  0
VERTEX
  8
0
 10
69.0623
 20
99.7805
 30
0.0
 40
0.5
 41
0.5
  0
VERTEX
  8
0
 10
68.8447
 20
100.391
 30
0.0
 40
0.5
 41
0.5
  0
VERTEX
  8
0
 10
68.7378
 20
100.528
 30
0.0
 40
0.5
 41
0.5
  0
VERTEX
  8
0
 10
69.0674
 20
100.834
 30
0.0
 40
0.5
 41
0.5
  0
VERTEX
  8
0
 10
70.4351
 20
101.315
 30
0.0
 40
0.5
 41
0.5
  0
VERTEX
  8
0
 10
70.7827
 20
101.198
 30
0.0
 40
0.5
 41
0.5
  0
VERTEX
  8
0
 10
70.8455
 20
100.732
 30
0.0
 40
0.5
 41
0.5
  0
VERTEX
  8
0
 10
70.9592
 20
100.594
 30
0.0
 40
0.5
 41
0.5
  0
VERTEX
  8
0
 10
70.8301
 20
100.324
 30
0.0
 40
0.5
 41
0.5
  0
VERTEX
  8
0
 10
70.9661
 20
99.9846
 30
0.0
 40
0.5
 41
0.5
  0
VERTEX
  8
0
 10
71.3428
 20
100.101
 30
0.0
 40
0.5
 41
0.5
  0
VERTEX
  8
0
 10
71.6052
 20
99.9724
 30
0.0
 40
0.5
 41
0.5
  0
VERTEX
  8
0
 10
71.7205
 20
99.5254
 30
0.0
 40
0.5
 41
0.5
  0
VERTEX
  8
0
 10
71.9878
 20
99.6245
 30
0.0
 40
0.5
 41
0.5
  0
VERTEX
  8
0
 10
72.1177
 20
99.3967
 30
0.0
 40
0.5
 41
0.5
  0
VERTEX
  8
0
 10
72.53
 20
99.6445
 30
0.0
 40
0.5
 41
0.5
  0
VERTEX
  8
0
 10
72.6619
 20
99.5828
 30
0.0
 40
0.5
 41
0.5
  0
VERTEX
  8
0
 10
72.7947
 20
99.6367
 30
0.0
 40
0.5
 41
0.5
  0
VERTEX
  8
0
 10
73.3125
 20
99.5757
 30
0.0
 40
0.5
 41
0.5
  0
VERTEX
  8
0
 10
73.8262
 20
99.8384
 30
0.0
 40
0.5
 41
0.5
  0
VERTEX
  8
0
 10
74.0259
 20
99.7805
 30
0.0
 40
0.5
 41
0.5
  0
VERTEX
  8
0
 10
75.1121
 20
100.097
 30
0.0
 40
0.5
 41
0.5
  0
VERTEX
  8
0
 10
75.25
 20
99.7805
 30
0.0
 40
0.5
 41
0.5
  0
VERTEX
  8
0
 10
75.4409
 20
99.769
 30
0.0
 40
0.5
 41
0.5
  0
VERTEX
  8
0
 10
76.1367
 20
99.1755
 30
0.0
 40
0.5
 41
0.5
  0
VERTEX
  8
0
 10
76.3123
 20
99.3015
 30
0.0
 40
0.5
 41
0.5
  0
VERTEX
  8
0
 10
76.3726
 20
99.7549
 30
0.0
 40
0.5
 41
0.5
  0
VERTEX
  8
0
 10
76.7458
 20
99.9165
 30
0.0
 40
0.5
 41
0.5
  0
VERTEX
  8
0
 10
76.8862
 20
100.18
 30
0.0
 40
0.5
 41
0.5
  0
VERTEX
  8
0
 10
77.3713
 20
100.464
 30
0.0
 40
0.5
 41
0.5
  0
VERTEX
  8
0
 10
77.967
 20
100.641
 30
0.0
 40
0.5
 41
0.5
  0
VERTEX
  8
0
 10
78.2478
 20
100.494
 30
0.0
 40
0.5
 41
0.5
  0
VERTEX
  8
0
 10
79.0515
 20
100.421
 30
0.0
 40
0.5
 41
0.5
  0
VERTEX
  8
0
 10
79.5903
 20
99.8347
 30
0.0
 40
0.5
 41
0.5
  0
VERTEX
  8
0
 10
79.6111
 20
99.6492
 30
0.0
 40
0.5
 41
0.5
  0
VERTEX
  8
0
 10
79.7854
 20
99.4387
 30
0.0
 40
0.5
 41
0.5
  0
VERTEX
  8
0
 10
80.0098
 20
98.9646
 30
0.0
 40
0.5
 41
0.5
  0
VERTEX
  8
0
 10
79.7053
 20
98.4253
 30
0.0
 40
0.5
 41
0.5
  0
VERTEX
  8
0
 10
79.3901
 20
98.0962
 30
0.0
 40
0.5
 41
0.5
  0
VERTEX
  8
0
 10
79.0625
 20
98.2087
 30
0.0
 40
0.5
 41
0.5
  0
VERTEX
  8
0
 10
78.7449
 20
97.7952
 30
0.0
 40
0.5
 41
0.5
  0
VERTEX
  8
0
 10
79.011
 20
97.3838
 30
0.0
 40
0.5
 41
0.5
  0
VERTEX
  8
0
 10
79.804
 20
96.9116
 30
0.0
 40
0.5
 41
0.5
  0
VERTEX
  8
0
 10
79.9368
 20
96.7859
 30
0.0
 40
0.5
 41
0.5
  0
VERTEX
  8
0
 10
79.8738
 20
96.6528
 30
0.0
 40
0.5
 41
0.5
  0
VERTEX
  8
0
 10
80.5359
 20
96.1711
 30
0.0
 40
0.5
 41
0.5
  0
VERTEX
  8
0
 10
80.4907
 20
96.0435
 30
0.0
 40
0.5
 41
0.5
  0
VERTEX
  8
0
 10
80.6045
 20
95.9072
 30
0.0
 40
0.5
 41
0.5
  0
VERTEX
  8
0
 10
80.2686
 20
95.0869
 30
0.0
 40
0.5
 41
0.5
  0
VERTEX
  8
0
 10
80.1458
 20
95.0208
 30
0.0
 40
0.5
 41
0.5
  0
VERTEX
  8
0
 10
80.1458
 20
94.8848
 30
0.0
 40
0.5
 41
0.5
  0
VERTEX
  8
0
 10
80.2666
 20
94.8235
 30
0.0
 40
0.5
 41
0.5
  0
VERTEX
  8
0
 10
79.8738
 20
94.6807
 30
0.0
 40
0.5
 41
0.5
  0
VERTEX
  8
0
 10
79.6494
 20
94.25
 30
0.0
 40
0.5
 41
0.5
  0
VERTEX
  8
0
 10
79.2488
 20
94.0886
 30
0.0
 40
0.5
 41
0.5
  0
VERTEX
  8
0
 10
78.4041
 20
94.3396
 30
0.0
 40
0.5
 41
0.5
  0
VERTEX
  8
0
 10
77.7756
 20
95.094
 30
0.0
 40
0.5
 41
0.5
  0
VERTEX
  8
0
 10
77.9045
 20
95.3401
 30
0.0
 40
0.5
 41
0.5
  0
VERTEX
  8
0
 10
78.0378
 20
95.0208
 30
0.0
 40
0.5
 41
0.5
  0
VERTEX
  8
0
 10
78.2419
 20
95.7007
 30
0.0
 40
0.5
 41
0.5
  0
VERTEX
  8
0
 10
78.1128
 20
95.7705
 30
0.0
 40
0.5
 41
0.5
  0
VERTEX
  8
0
 10
78.0906
 20
96.0273
 30
0.0
 40
0.5
 41
0.5
  0
VERTEX
  8
0
 10
77.9697
 20
96.7207
 30
0.0
 40
0.5
 41
0.5
  0
VERTEX
  8
0
 10
77.7659
 20
97.4006
 30
0.0
 40
0.5
 41
0.5
  0
VERTEX
  8
0
 10
77.5737
 20
97.5442
 30
0.0
 40
0.5
 41
0.5
  0
VERTEX
  8
0
 10
77.6978
 20
97.7407
 30
0.0
 40
0.5
 41
0.5
  0
VERTEX
  8
0
 10
77.5095
 20
97.8835
 30
0.0
 40
0.5
 41
0.5
  0
VERTEX
  8
0
 10
77.8337
 20
98.1487
 30
0.0
 40
0.5
 41
0.5
  0
VERTEX
  8
0
 10
77.9019
 20
98.7607
 30
0.0
 40
0.5
 41
0.5
  0
VERTEX
  8
0
 10
77.6382
 20
98.9106
 30
0.0
 40
0.5
 41
0.5
  0
VERTEX
  8
0
 10
77.6982
 20
99.022
 30
0.0
 40
0.5
 41
0.5
  0
VERTEX
  8
0
 10
78.0061
 20
99.0569
 30
0.0
 40
0.5
 41
0.5
  0
VERTEX
  8
0
 10
78.106
 20
99.3047
 30
0.0
 40
0.5
 41
0.5
  0
VERTEX
  8
0
 10
77.8416
 20
99.1455
 30
0.0
 40
0.5
 41
0.5
  0
VERTEX
  8
0
 10
77.7078
 20
99.2305
 30
0.0
 40
0.5
 41
0.5
  0
VERTEX
  8
0
 10
77.6289
 20
99.0352
 30
0.0
 40
0.5
 41
0.5
  0
VERTEX
  8
0
 10
77.1538
 20
99.1006
 30
0.0
 40
0.5
 41
0.5
  0
VERTEX
  8
0
 10
77.2866
 20
99.0313
 30
0.0
 40
0.5
 41
0.5
  0
VERTEX
  8
0
 10
77.2229
 20
98.9089
 30
0.0
 40
0.5
 41
0.5
  0
VERTEX
  8
0
 10
76.844
 20
98.812
 30
0.0
 40
0.5
 41
0.5
  0
VERTEX
  8
0
 10
76.917
 20
97.9543
 30
0.0
 40
0.5
 41
0.5
  0
VERTEX
  8
0
 10
77.2795
 20
97.469
 30
0.0
 40
0.5
 41
0.5
  0
VERTEX
  8
0
 10
77.1658
 20
97.3857
 30
0.0
 40
0.5
 41
0.5
  0
VERTEX
  8
0
 10
77.2219
 20
97.1287
 30
0.0
 40
0.5
 41
0.5
  0
VERTEX
  8
0
 10
77.4258
 20
97.1965
 30
0.0
 40
0.5
 41
0.5
  0
VERTEX
  8
0
 10
77.488
 20
97.0645
 30
0.0
 40
0.5
 41
0.5
  0
VERTEX
  8
0
 10
77.2898
 20
96.8567
 30
0.0
 40
0.5
 41
0.5
  0
VERTEX
  8
0
 10
77.4919
 20
96.7878
 30
0.0
 40
0.5
 41
0.5
  0
VERTEX
  8
0
 10
77.4241
 20
96.6589
 30
0.0
 40
0.5
 41
0.5
  0
VERTEX
  8
0
 10
77.2219
 20
96.6528
 30
0.0
 40
0.5
 41
0.5
  0
VERTEX
  8
0
 10
77.1372
 20
95.1467
 30
0.0
 40
0.5
 41
0.5
  0
VERTEX
  8
0
 10
77.6299
 20
93.8647
 30
0.0
 40
0.5
 41
0.5
  0
VERTEX
  8
0
 10
77.3123
 20
93.687
 30
0.0
 40
0.5
 41
0.5
  0
VERTEX
  8
0
 10
77.1538
 20
93.3889
 30
0.0
 40
0.5
 41
0.5
  0
VERTEX
  8
0
 10
77.4792
 20
93.1768
 30
0.0
 40
0.5
 41
0.5
  0
VERTEX
  8
0
 10
77.3542
 20
92.863
 30
0.0
 40
0.5
 41
0.5
  0
VERTEX
  8
0
 10
77.2271
 20
92.9626
 30
0.0
 40
0.5
 41
0.5
  0
VERTEX
  8
0
 10
76.0798
 20
93.2612
 30
0.0
 40
0.5
 41
0.5
  0
VERTEX
  8
0
 10
76.0559
 20
93.5212
 30
0.0
 40
0.5
 41
0.5
  0
VERTEX
  8
0
 10
75.0532
 20
94.6191
 30
0.0
 40
0.5
 41
0.5
  0
VERTEX
  8
0
 10
75.1157
 20
94.7427
 30
0.0
 40
0.5
 41
0.5
  0
VERTEX
  8
0
 10
75.3071
 20
94.7603
 30
0.0
 40
0.5
 41
0.5
  0
VERTEX
  8
0
 10
76.0322
 20
95.2507
 30
0.0
 40
0.5
 41
0.5
  0
VERTEX
  8
0
 10
76.2051
 20
96.0281
 30
0.0
 40
0.5
 41
0.5
  0
VERTEX
  8
0
 10
76.2258
 20
96.8496
 30
0.0
 40
0.5
 41
0.5
  0
VERTEX
  8
0
 10
76.3591
 20
97.2019
 30
0.0
 40
0.5
 41
0.5
  0
VERTEX
  8
0
 10
76.4739
 20
98.3525
 30
0.0
 40
0.5
 41
0.5
  0
VERTEX
  8
0
 10
75.9834
 20
97.9604
 30
0.0
 40
0.5
 41
0.5
  0
VERTEX
  8
0
 10
75.7258
 20
98.0806
 30
0.0
 40
0.5
 41
0.5
  0
VERTEX
  8
0
 10
75.9985
 20
97.6729
 30
0.0
 40
0.5
 41
0.5
  0
VERTEX
  8
0
 10
75.9282
 20
97.5427
 30
0.0
 40
0.5
 41
0.5
  0
VERTEX
  8
0
 10
75.7258
 20
97.5366
 30
0.0
 40
0.5
 41
0.5
  0
VERTEX
  8
0
 10
75.8005
 20
97.1079
 30
0.0
 40
0.5
 41
0.5
  0
VERTEX
  8
0
 10
75.5898
 20
96.7888
 30
0.0
 40
0.5
 41
0.5
  0
VERTEX
  8
0
 10
75.6162
 20
95.905
 30
0.0
 40
0.5
 41
0.5
  0
VERTEX
  8
0
 10
75.5034
 20
95.5693
 30
0.0
 40
0.5
 41
0.5
  0
VERTEX
  8
0
 10
75.2458
 20
95.2344
 30
0.0
 40
0.5
 41
0.5
  0
VERTEX
  8
0
 10
74.7759
 20
95.2874
 30
0.0
 40
0.5
 41
0.5
  0
VERTEX
  8
0
 10
73.822
 20
95.1567
 30
0.0
 40
0.5
 41
0.5
  0
VERTEX
  8
0
 10
73.9326
 20
94.7715
 30
0.0
 40
0.5
 41
0.5
  0
VERTEX
  8
0
 10
73.4412
 20
94.626
 30
0.0
 40
0.5
 41
0.5
  0
VERTEX
  8
0
 10
73.074
 20
95.0208
 30
0.0
 40
0.5
 41
0.5
  0
VERTEX
  8
0
 10
73.0061
 20
94.4087
 30
0.0
 40
0.5
 41
0.5
  0
VERTEX
  8
0
 10
73.6831
 20
94.4509
 30
0.0
 40
0.5
 41
0.5
  0
VERTEX
  8
0
 10
74.8538
 20
94.0872
 30
0.0
 40
0.5
 41
0.5
  0
VERTEX
  8
0
 10
74.9788
 20
94.1904
 30
0.0
 40
0.5
 41
0.5
  0
VERTEX
  8
0
 10
75.386
 20
93.9329
 30
0.0
 40
0.5
 41
0.5
  0
VERTEX
  8
0
 10
75.3313
 20
93.7437
 30
0.0
 40
0.5
 41
0.5
  0
VERTEX
  8
0
 10
75.4309
 20
93.8486
 30
0.0
 40
0.5
 41
0.5
  0
VERTEX
  8
0
 10
75.6843
 20
93.1982
 30
0.0
 40
0.5
 41
0.5
  0
VERTEX
  8
0
 10
75.4094
 20
92.9128
 30
0.0
 40
0.5
 41
0.5
  0
VERTEX
  8
0
 10
75.2874
 20
92.5884
 30
0.0
 40
0.5
 41
0.5
  0
VERTEX
  8
0
 10
75.5898
 20
92.7087
 30
0.0
 40
0.5
 41
0.5
  0
VERTEX
  8
0
 10
75.8132
 20
93.1877
 30
0.0
 40
0.5
 41
0.5
  0
VERTEX
  8
0
 10
75.9854
 20
93.2393
 30
0.0
 40
0.5
 41
0.5
  0
VERTEX
  8
0
 10
76.29
 20
92.6914
 30
0.0
 40
0.5
 41
0.5
  0
VERTEX
  8
0
 10
76.3188
 20
91.9641
 30
0.0
 40
0.5
 41
0.5
  0
VERTEX
  8
0
 10
76.0664
 20
91.7056
 30
0.0
 40
0.5
 41
0.5
  0
VERTEX
  8
0
 10
75.3018
 20
91.8433
 30
0.0
 40
0.5
 41
0.5
  0
VERTEX
  8
0
 10
75.1475
 20
91.4932
 30
0.0
 40
0.5
 41
0.5
  0
VERTEX
  8
0
 10
75.0632
 20
91.1807
 30
0.0
 40
0.5
 41
0.5
  0
VERTEX
  8
0
 10
75.3027
 20
90.8303
 30
0.0
 40
0.5
 41
0.5
  0
VERTEX
  8
0
 10
75.3015
 20
90.4114
 30
0.0
 40
0.5
 41
0.5
  0
VERTEX
  8
0
 10
75.5229
 20
90.5974
 30
0.0
 40
0.5
 41
0.5
  0
VERTEX
  8
0
 10
75.8621
 20
90.6689
 30
0.0
 40
0.5
 41
0.5
  0
VERTEX
  8
0
 10
76.0659
 20
90.3289
 30
0.0
 40
0.5
 41
0.5
  0
VERTEX
  8
0
 10
76.4351
 20
91.2117
 30
0.0
 40
0.5
 41
0.5
  0
VERTEX
  8
0
 10
76.7256
 20
91.2571
 30
0.0
 40
0.5
 41
0.5
  0
VERTEX
  8
0
 10
77.1323
 20
90.9744
 30
0.0
 40
0.5
 41
0.5
  0
VERTEX
  8
0
 10
77.9009
 20
90.9792
 30
0.0
 40
0.5
 41
0.5
  0
VERTEX
  8
0
 10
77.9846
 20
90.6943
 30
0.0
 40
0.5
 41
0.5
  0
VERTEX
  8
0
 10
78.5149
 20
90.5347
 30
0.0
 40
0.5
 41
0.5
  0
VERTEX
  8
0
 10
79.0002
 20
90.5303
 30
0.0
 40
0.5
 41
0.5
  0
VERTEX
  8
0
 10
78.7932
 20
89.9133
 30
0.0
 40
0.5
 41
0.5
  0
VERTEX
  8
0
 10
78.6692
 20
89.2463
 30
0.0
 40
0.5
 41
0.5
  0
VERTEX
  8
0
 10
78.7717
 20
88.9795
 30
0.0
 40
0.5
 41
0.5
  0
VERTEX
  8
0
 10
78.1731
 20
89.0886
 30
0.0
 40
0.5
 41
0.5
  0
VERTEX
  8
0
 10
78.0425
 20
89.0435
 30
0.0
 40
0.5
 41
0.5
  0
VERTEX
  8
0
 10
77.7659
 20
89.3088
 30
0.0
 40
0.5
 41
0.5
  0
VERTEX
  8
0
 10
77.7039
 20
88.96
 30
0.0
 40
0.5
 41
0.5
  0
VERTEX
  8
0
 10
77.5605
 20
88.7451
 30
0.0
 40
0.5
 41
0.5
  0
VERTEX
  8
0
 10
77.092
 20
88.4893
 30
0.0
 40
0.5
 41
0.5
  0
VERTEX
  8
0
 10
76.7375
 20
88.0979
 30
0.0
 40
0.5
 41
0.5
  0
VERTEX
  8
0
 10
76.5581
 20
88.1521
 30
0.0
 40
0.5
 41
0.5
  0
VERTEX
  8
0
 10
76.27
 20
88.425
 30
0.0
 40
0.5
 41
0.5
  0
VERTEX
  8
0
 10
76.4058
 20
88.561
 30
0.0
 40
0.5
 41
0.5
  0
VERTEX
  8
0
 10
76.6746
 20
88.5054
 30
0.0
 40
0.5
 41
0.5
  0
VERTEX
  8
0
 10
76.7458
 20
88.7651
 30
0.0
 40
0.5
 41
0.5
  0
VERTEX
  8
0
 10
76.4761
 20
88.6538
 30
0.0
 40
0.5
 41
0.5
  0
VERTEX
  8
0
 10
76.24
 20
89.1445
 30
0.0
 40
0.5
 41
0.5
  0
VERTEX
  8
0
 10
75.9385
 20
89.1362
 30
0.0
 40
0.5
 41
0.5
  0
VERTEX
  8
0
 10
75.5947
 20
89.1775
 30
0.0
 40
0.5
 41
0.5
  0
VERTEX
  8
0
 10
75.5898
 20
89.5129
 30
0.0
 40
0.5
 41
0.5
  0
VERTEX
  8
0
 10
75.3174
 20
89.1494
 30
0.0
 40
0.5
 41
0.5
  0
VERTEX
  8
0
 10
74.8298
 20
89.6035
 30
0.0
 40
0.5
 41
0.5
  0
VERTEX
  8
0
 10
74.3672
 20
89.6628
 30
0.0
 40
0.5
 41
0.5
  0
VERTEX
  8
0
 10
74.2354
 20
89.7666
 30
0.0
 40
0.5
 41
0.5
  0
VERTEX
  8
0
 10
73.4512
 20
89.5801
 30
0.0
 40
0.5
 41
0.5
  0
VERTEX
  8
0
 10
72.5774
 20
89.6282
 30
0.0
 40
0.5
 41
0.5
  0
VERTEX
  8
0
 10
72.3389
 20
89.5417
 30
0.0
 40
0.5
 41
0.5
  0
VERTEX
  8
0
 10
71.5938
 20
89.4797
 30
0.0
 40
0.5
 41
0.5
  0
VERTEX
  8
0
 10
71.3835
 20
89.7053
 30
0.0
 40
0.5
 41
0.5
  0
VERTEX
  8
0
 10
71.4556
 20
89.9531
 30
0.0
 40
0.5
 41
0.5
  0
VERTEX
  8
0
 10
71.8501
 20
89.7849
 30
0.0
 40
0.5
 41
0.5
  0
VERTEX
  8
0
 10
71.9509
 20
90.2769
 30
0.0
 40
0.5
 41
0.5
  0
VERTEX
  8
0
 10
71.5828
 20
90.5913
 30
0.0
 40
0.5
 41
0.5
  0
VERTEX
  8
0
 10
71.2334
 20
90.156
 30
0.0
 40
0.5
 41
0.5
  0
VERTEX
  8
0
 10
70.5811
 20
90.4836
 30
0.0
 40
0.5
 41
0.5
  0
VERTEX
  8
0
 10
70.541
 20
90.8652
 30
0.0
 40
0.5
 41
0.5
  0
VERTEX
  8
0
 10
69.8149
 20
91.1023
 30
0.0
 40
0.5
 41
0.5
  0
VERTEX
  8
0
 10
69.6062
 20
91.417
 30
0.0
 40
0.5
 41
0.5
  0
VERTEX
  8
0
 10
69.252
 20
91.2031
 30
0.0
 40
0.5
 41
0.5
  0
VERTEX
  8
0
 10
68.8501
 20
91.1094
 30
0.0
 40
0.5
 41
0.5
  0
VERTEX
  8
0
 10
68.7122
 20
90.8054
 30
0.0
 40
0.5
 41
0.5
  0
VERTEX
  8
0
 10
68.5876
 20
90.7402
 30
0.0
 40
0.5
 41
0.5
  0
VERTEX
  8
0
 10
68.5183
 20
90.873
 30
0.0
 40
0.5
 41
0.5
  0
VERTEX
  8
0
 10
68.322
 20
90.8032
 30
0.0
 40
0.5
 41
0.5
  0
VERTEX
  8
0
 10
68.3499
 20
90.3755
 30
0.0
 40
0.5
 41
0.5
  0
VERTEX
  8
0
 10
68.3054
 20
89.9551
 30
0.0
 40
0.5
 41
0.5
  0
VERTEX
  8
0
 10
67.6355
 20
90.1211
 30
0.0
 40
0.5
 41
0.5
  0
VERTEX
  8
0
 10
67.157
 20
89.7534
 30
0.0
 40
0.5
 41
0.5
  0
VERTEX
  8
0
 10
66.6023
 20
89.6162
 30
0.0
 40
0.5
 41
0.5
  0
VERTEX
  8
0
 10
66.4104
 20
89.377
 30
0.0
 40
0.5
 41
0.5
  0
VERTEX
  8
0
 10
66.2559
 20
89.5752
 30
0.0
 40
0.5
 41
0.5
  0
VERTEX
  8
0
 10
66.1384
 20
89.5129
 30
0.0
 40
0.5
 41
0.5
  0
VERTEX
  8
0
 10
65.7971
 20
89.8364
 30
0.0
 40
0.5
 41
0.5
  0
VERTEX
  8
0
 10
65.6641
 20
89.7888
 30
0.0
 40
0.5
 41
0.5
  0
VERTEX
  8
0
 10
65.5447
 20
90.4058
 30
0.0
 40
0.5
 41
0.5
  0
VERTEX
  8
0
 10
65.6511
 20
90.5146
 30
0.0
 40
0.5
 41
0.5
  0
VERTEX
  8
0
 10
66.1448
 20
90.6614
 30
0.0
 40
0.5
 41
0.5
  0
VERTEX
  8
0
 10
66.2695
 20
90.5991
 30
0.0
 40
0.5
 41
0.5
  0
VERTEX
  8
0
 10
66.2744
 20
90.4648
 30
0.0
 40
0.5
 41
0.5
  0
VERTEX
  8
0
 10
66.55
 20
91.071
 30
0.0
 40
0.5
 41
0.5
  0
VERTEX
  8
0
 10
66.6821
 20
91.009
 30
0.0
 40
0.5
 41
0.5
  0
VERTEX
  8
0
 10
66.6143
 20
90.873
 30
0.0
 40
0.5
 41
0.5
  0
VERTEX
  8
0
 10
66.8906
 20
91.1997
 30
0.0
 40
0.5
 41
0.5
  0
VERTEX
  8
0
 10
67.6104
 20
91.5884
 30
0.0
 40
0.5
 41
0.5
  0
VERTEX
  8
0
 10
67.4434
 20
91.7563
 30
0.0
 40
0.5
 41
0.5
  0
VERTEX
  8
0
 10
66.9983
 20
92.8562
 30
0.0
 40
0.5
 41
0.5
  0
VERTEX
  8
0
 10
66.5576
 20
92.9858
 30
0.0
 40
0.5
 41
0.5
  0
VERTEX
  8
0
 10
66.6753
 20
93.3281
 30
0.0
 40
0.5
 41
0.5
  0
VERTEX
  8
0
 10
66.6208
 20
93.5811
 30
0.0
 40
0.5
 41
0.5
  0
VERTEX
  8
0
 10
66.8291
 20
93.5396
 30
0.0
 40
0.5
 41
0.5
  0
VERTEX
  8
0
 10
67.2034
 20
93.6919
 30
0.0
 40
0.5
 41
0.5
  0
VERTEX
  8
0
 10
68.1023
 20
94.6882
 30
0.0
 40
0.5
 41
0.5
  0
VERTEX
  8
0
 10
68.0422
 20
94.8167
 30
0.0
 40
0.5
 41
0.5
  0
VERTEX
  8
0
 10
67.8906
 20
94.8193
 30
0.0
 40
0.5
 41
0.5
  0
VERTEX
  8
0
 10
67.6755
 20
94.8577
 30
0.0
 40
0.5
 41
0.5
  0
VERTEX
  8
0
 10
67.2263
 20
95.0208
 30
0.0
 40
0.5
 41
0.5
  0
VERTEX
  8
0
 10
66.7563
 20
94.7617
 30
0.0
 40
0.5
 41
0.5
  0
VERTEX
  8
0
 10
66.4783
 20
95.4287
 30
0.0
 40
0.5
 41
0.5
  0
VERTEX
  8
0
 10
66.2979
 20
95.6709
 30
0.0
 40
0.5
 41
0.5
  0
VERTEX
  8
0
 10
66.4595
 20
96.304
 30
0.0
 40
0.5
 41
0.5
  0
VERTEX
  8
0
 10
66.2761
 20
96.3188
 30
0.0
 40
0.5
 41
0.5
  0
VERTEX
  8
0
 10
66.2112
 20
96.4458
 30
0.0
 40
0.5
 41
0.5
  0
VERTEX
  8
0
 10
66.3452
 20
96.5798
 30
0.0
 40
0.5
 41
0.5
  0
VERTEX
  8
0
 10
66.4783
 20
96.5168
 30
0.0
 40
0.5
 41
0.5
  0
VERTEX
  8
0
 10
66.3406
 20
96.6396
 30
0.0
 40
0.5
 41
0.5
  0
VERTEX
  8
0
 10
66.0171
 20
96.7927
 30
0.0
 40
0.5
 41
0.5
  0
VERTEX
  8
0
 10
66.2222
 20
97.5115
 30
0.0
 40
0.5
 41
0.5
  0
VERTEX
  8
0
 10
66.7585
 20
97.781
 30
0.0
 40
0.5
 41
0.5
  0
VERTEX
  8
0
 10
67.6343
 20
98.3525
 30
0.0
 40
0.5
 41
0.5
  0
VERTEX
  8
0
 10
67.7502
 20
98.2896
 30
0.0
 40
0.5
 41
0.5
  0
VERTEX
  8
0
 10
68.4519
 20
98.6746
 30
0.0
 40
0.5
 41
0.5
  0
VERTEX
  8
0
 10
69.0938
 20
98.7693
 30
0.0
 40
0.5
 41
0.5
  0
VERTEX
  8
0
 10
69.481
 20
99.1067
 30
0.0
 40
0.5
 41
0.5
  0
SEQEND
  8
0
  0
POLYLINE
8
0
 62
     0
 66
     1
 10
0
 20
0
 30
0.0
 70
     1
 40
0.5
 41
0.5
  0
VERTEX
  8
0
 10
177.017
 20
90.9048
 30
0.0
 40
0.5
 41
0.5
  0
VERTEX
  8
0
 10
177.014
 20
90.9243
 30
0.0
 40
0.5
 41
0.5
  0
VERTEX
  8
0
 10
177.014
 20
90.95
 30
0.0
 40
0.5
 41
0.5
  0
VERTEX
  8
0
 10
177.037
 20
91.1777
 30
0.0
 40
0.5
 41
0.5
  0
VERTEX
  8
0
 10
177.116
 20
91.4778
 30
0.0
 40
0.5
 41
0.5
  0
VERTEX
  8
0
 10
177.359
 20
91.8948
 30
0.0
 40
0.5
 41
0.5
  0
VERTEX
  8
0
 10
177.794
 20
92.0837
 30
0.0
 40
0.5
 41
0.5
  0
VERTEX
  8
0
 10
178.361
 20
91.7673
 30
0.0
 40
0.5
 41
0.5
  0
VERTEX
  8
0
 10
178.592
 20
91.0728
 30
0.0
 40
0.5
 41
0.5
  0
VERTEX
  8
0
 10
178.597
 20
91.0112
 30
0.0
 40
0.5
 41
0.5
  0
VERTEX
  8
0
 10
178.598
 20
90.95
 30
0.0
 40
0.5
 41
0.5
  0
VERTEX
  8
0
 10
178.589
 20
90.7607
 30
0.0
 40
0.5
 41
0.5
  0
VERTEX
  8
0
 10
178.562
 20
90.5598
 30
0.0
 40
0.5
 41
0.5
  0
VERTEX
  8
0
 10
178.328
 20
89.9839
 30
0.0
 40
0.5
 41
0.5
  0
VERTEX
  8
0
 10
177.818
 20
89.7229
 30
0.0
 40
0.5
 41
0.5
  0
VERTEX
  8
0
 10
177.34
 20
89.9224
 30
0.0
 40
0.5
 41
0.5
  0
VERTEX
  8
0
 10
177.098
 20
90.3618
 30
0.0
 40
0.5
 41
0.5
  0
VERTEX
  8
0
 10
177.034
 20
90.6663
 30
0.0
 40
0.5
 41
0.5
  0
VERTEX
  8
0
 10
177.017
 20
90.9019
 30
0.0
 40
0.5
 41
0.5
  0
VERTEX
  8
0
 10
177.017
 20
90.9048
 30
0.0
 40
0.5
 41
0.5
  0
SEQEND
  8
0
  0
POLYLINE
8
0
 62
     0
 66
     1
 10
0
 20
0
 30
0.0
 70
     1
 40
0.5
 41
0.5
  0
VERTEX
  8
0
 10
178.316
 20
90.929
 30
0.0
 40
0.5
 41
0.5
  0
VERTEX
  8
0
 10
178.199
 20
91.5229
 30
0.0
 40
0.5
 41
0.5
  0
VERTEX
  8
0
 10
177.944
 20
91.8137
 30
0.0
 40
0.5
 41
0.5
  0
VERTEX
  8
0
 10
177.892
 20
91.8364
 30
0.0
 40
0.5
 41
0.5
  0
VERTEX
  8
0
 10
177.842
 20
91.8469
 30
0.0
 40
0.5
 41
0.5
  0
VERTEX
  8
0
 10
177.832
 20
91.8484
 30
0.0
 40
0.5
 41
0.5
  0
VERTEX
  8
0
 10
177.821
 20
91.8499
 30
0.0
 40
0.5
 41
0.5
  0
VERTEX
  8
0
 10
177.811
 20
91.8499
 30
0.0
 40
0.5
 41
0.5
  0
VERTEX
  8
0
 10
177.8
 20
91.8499
 30
0.0
 40
0.5
 41
0.5
  0
VERTEX
  8
0
 10
177.502
 20
91.679
 30
0.0
 40
0.5
 41
0.5
  0
VERTEX
  8
0
 10
177.347
 20
91.304
 30
0.0
 40
0.5
 41
0.5
  0
VERTEX
  8
0
 10
177.31
 20
91.0864
 30
0.0
 40
0.5
 41
0.5
  0
VERTEX
  8
0
 10
177.299
 20
90.9019
 30
0.0
 40
0.5
 41
0.5
  0
VERTEX
  8
0
 10
177.311
 20
90.7219
 30
0.0
 40
0.5
 41
0.5
  0
VERTEX
  8
0
 10
177.35
 20
90.5088
 30
0.0
 40
0.5
 41
0.5
  0
VERTEX
  8
0
 10
177.505
 20
90.1458
 30
0.0
 40
0.5
 41
0.5
  0
VERTEX
  8
0
 10
177.794
 20
89.981
 30
0.0
 40
0.5
 41
0.5
  0
VERTEX
  8
0
 10
178.189
 20
90.2583
 30
0.0
 40
0.5
 41
0.5
  0
VERTEX
  8
0
 10
178.316
 20
90.9258
 30
0.0
 40
0.5
 41
0.5
  0
VERTEX
  8
0
 10
178.316
 20
90.929
 30
0.0
 40
0.5
 41
0.5
  0
SEQEND
  8
0
  0
POLYLINE
8
0
 62
     0
 66
     1
 10
0
 20
0
 30
0.0
 70
     1
 40
0.5
 41
0.5
  0
VERTEX
  8
0
 10
180.156
 20
92.3928
 30
0.0
 40
0.5
 41
0.5
  0
VERTEX
  8
0
 10
180.156
 20
89.7708
 30
0.0
 40
0.5
 41
0.5
  0
VERTEX
  8
0
 10
179.896
 20
89.7708
 30
0.0
 40
0.5
 41
0.5
  0
VERTEX
  8
0
 10
179.896
 20
90.0078
 30
0.0
 40
0.5
 41
0.5
  0
VERTEX
  8
0
 10
179.796
 20
89.8774
 30
0.0
 40
0.5
 41
0.5
  0
VERTEX
  8
0
 10
179.688
 20
89.7917
 30
0.0
 40
0.5
 41
0.5
  0
VERTEX
  8
0
 10
179.544
 20
89.7378
 30
0.0
 40
0.5
 41
0.5
  0
VERTEX
  8
0
 10
179.425
 20
89.7229
 30
0.0
 40
0.5
 41
0.5
  0
VERTEX
  8
0
 10
179.406
 20
89.7229
 30
0.0
 40
0.5
 41
0.5
  0
VERTEX
  8
0
 10
179.388
 20
89.7229
 30
0.0
 40
0.5
 41
0.5
  0
VERTEX
  8
0
 10
178.975
 20
89.8652
 30
0.0
 40
0.5
 41
0.5
  0
VERTEX
  8
0
 10
178.761
 20
90.1877
 30
0.0
 40
0.5
 41
0.5
  0
VERTEX
  8
0
 10
178.727
 20
90.3242
 30
0.0
 40
0.5
 41
0.5
  0
VERTEX
  8
0
 10
178.717
 20
90.4519
 30
0.0
 40
0.5
 41
0.5
  0
VERTEX
  8
0
 10
178.91
 20
91.0203
 30
0.0
 40
0.5
 41
0.5
  0
VERTEX
  8
0
 10
179.337
 20
91.2288
 30
0.0
 40
0.5
 41
0.5
  0
VERTEX
  8
0
 10
179.369
 20
91.2319
 30
0.0
 40
0.5
 41
0.5
  0
VERTEX
  8
0
 10
179.4
 20
91.2319
 30
0.0
 40
0.5
 41
0.5
  0
VERTEX
  8
0
 10
179.476
 20
91.2273
 30
0.0
 40
0.5
 41
0.5
  0
VERTEX
  8
0
 10
179.553
 20
91.2139
 30
0.0
 40
0.5
 41
0.5
  0
VERTEX
  8
0
 10
179.735
 20
91.1328
 30
0.0
 40
0.5
 41
0.5
  0
VERTEX
  8
0
 10
179.875
 20
90.9739
 30
0.0
 40
0.5
 41
0.5
  0
VERTEX
  8
0
 10
179.875
 20
92.3928
 30
0.0
 40
0.5
 41
0.5
  0
VERTEX
  8
0
 10
180.156
 20
92.3928
 30
0.0
 40
0.5
 41
0.5
  0
SEQEND
  8
0
  0
POLYLINE
8
0
 62
     0
 66
     1
 10
0
 20
0
 30
0.0
 70
     1
 40
0.5
 41
0.5
  0
VERTEX
  8
0
 10
179.875
 20
90.5029
 30
0.0
 40
0.5
 41
0.5
  0
VERTEX
  8
0
 10
179.768
 20
90.8628
 30
0.0
 40
0.5
 41
0.5
  0
VERTEX
  8
0
 10
179.448
 20
90.9949
 30
0.0
 40
0.5
 41
0.5
  0
VERTEX
  8
0
 10
179.144
 20
90.8674
 30
0.0
 40
0.5
 41
0.5
  0
VERTEX
  8
0
 10
179.01
 20
90.5869
 30
0.0
 40
0.5
 41
0.5
  0
VERTEX
  8
0
 10
179.001
 20
90.5193
 30
0.0
 40
0.5
 41
0.5
  0
VERTEX
  8
0
 10
178.999
 20
90.4519
 30
0.0
 40
0.5
 41
0.5
  0
VERTEX
  8
0
 10
179.008
 20
90.3574
 30
0.0
 40
0.5
 41
0.5
  0
VERTEX
  8
0
 10
179.038
 20
90.2507
 30
0.0
 40
0.5
 41
0.5
  0
VERTEX
  8
0
 10
179.174
 20
90.0483
 30
0.0
 40
0.5
 41
0.5
  0
VERTEX
  8
0
 10
179.448
 20
89.9568
 30
0.0
 40
0.5
 41
0.5
  0
VERTEX
  8
0
 10
179.744
 20
90.0842
 30
0.0
 40
0.5
 41
0.5
  0
VERTEX
  8
0
 10
179.863
 20
90.3647
 30
0.0
 40
0.5
 41
0.5
  0
VERTEX
  8
0
 10
179.872
 20
90.4324
 30
0.0
 40
0.5
 41
0.5
  0
VERTEX
  8
0
 10
179.875
 20
90.4998
 30
0.0
 40
0.5
 41
0.5
  0
VERTEX
  8
0
 10
179.875
 20
90.5029
 30
0.0
 40
0.5
 41
0.5
  0
SEQEND
  8
0
  0
POLYLINE
8
0
 62
     0
 66
     1
 10
0
 20
0
 30
0.0
 70
     1
 40
0.5
 41
0.5
  0
VERTEX
  8
0
 10
180.795
 20
92.0149
 30
0.0
 40
0.5
 41
0.5
  0
VERTEX
  8
0
 10
180.907
 20
92.0117
 30
0.0
 40
0.5
 41
0.5
  0
VERTEX
  8
0
 10
181.026
 20
92.0059
 30
0.0
 40
0.5
 41
0.5
  0
VERTEX
  8
0
 10
181.44
 20
91.8979
 30
0.0
 40
0.5
 41
0.5
  0
VERTEX
  8
0
 10
181.644
 20
91.4929
 30
0.0
 40
0.5
 41
0.5
  0
VERTEX
  8
0
 10
181.573
 20
91.1733
 30
0.0
 40
0.5
 41
0.5
  0
VERTEX
  8
0
 10
181.362
 20
90.9949
 30
0.0
 40
0.5
 41
0.5
  0
VERTEX
  8
0
 10
181.395
 20
90.9919
 30
0.0
 40
0.5
 41
0.5
  0
VERTEX
  8
0
 10
181.428
 20
90.9829
 30
0.0
 40
0.5
 41
0.5
  0
VERTEX
  8
0
 10
181.723
 20
90.7817
 30
0.0
 40
0.5
 41
0.5
  0
VERTEX
  8
0
 10
181.857
 20
90.3828
 30
0.0
 40
0.5
 41
0.5
  0
VERTEX
  8
0
 10
181.621
 20
89.9268
 30
0.0
 40
0.5
 41
0.5
  0
VERTEX
  8
0
 10
181.029
 20
89.7708
 30
0.0
 40
0.5
 41
0.5
  0
VERTEX
  8
0
 10
180.51
 20
89.7708
 30
0.0
 40
0.5
 41
0.5
  0
VERTEX
  8
0
 10
180.51
 20
92.0149
 30
0.0
 40
0.5
 41
0.5
  0
VERTEX
  8
0
 10
180.795
 20
92.0149
 30
0.0
 40
0.5
 41
0.5
  0
SEQEND
  8
0
  0
POLYLINE
8
0
 62
     0
 66
     1
 10
0
 20
0
 30
0.0
 70
     1
 40
0.5
 41
0.5
  0
VERTEX
  8
0
 10
180.816
 20
90.8328
 30
0.0
 40
0.5
 41
0.5
  0
VERTEX
  8
0
 10
180.816
 20
90.0078
 30
0.0
 40
0.5
 41
0.5
  0
VERTEX
  8
0
 10
180.903
 20
89.9973
 30
0.0
 40
0.5
 41
0.5
  0
VERTEX
  8
0
 10
180.984
 20
89.9929
 30
0.0
 40
0.5
 41
0.5
  0
VERTEX
  8
0
 10
181.317
 20
90.0574
 30
0.0
 40
0.5
 41
0.5
  0
VERTEX
  8
0
 10
181.494
 20
90.2
 30
0.0
 40
0.5
 41
0.5
  0
VERTEX
  8
0
 10
181.537
 20
90.2869
 30
0.0
 40
0.5
 41
0.5
  0
VERTEX
  8
0
 10
181.551
 20
90.3589
 30
0.0
 40
0.5
 41
0.5
  0
VERTEX
  8
0
 10
181.551
 20
90.377
 30
0.0
 40
0.5
 41
0.5
  0
VERTEX
  8
0
 10
181.551
 20
90.3979
 30
0.0
 40
0.5
 41
0.5
  0
VERTEX
  8
0
 10
181.372
 20
90.7278
 30
0.0
 40
0.5
 41
0.5
  0
VERTEX
  8
0
 10
180.816
 20
90.8298
 30
0.0
 40
0.5
 41
0.5
  0
VERTEX
  8
0
 10
180.816
 20
90.8328
 30
0.0
 40
0.5
 41
0.5
  0
SEQEND
  8
0
  0
POLYLINE
8
0
 62
     0
 66
     1
 10
0
 20
0
 30
0.0
 70
     1
 40
0.5
 41
0.5
  0
VERTEX
  8
0
 10
180.816
 20
91.8018
 30
0.0
 40
0.5
 41
0.5
  0
VERTEX
  8
0
 10
180.816
 20
91.0459
 30
0.0
 40
0.5
 41
0.5
  0
VERTEX
  8
0
 10
180.865
 20
91.0398
 30
0.0
 40
0.5
 41
0.5
  0
VERTEX
  8
0
 10
180.915
 20
91.0398
 30
0.0
 40
0.5
 41
0.5
  0
VERTEX
  8
0
 10
181.248
 20
91.1223
 30
0.0
 40
0.5
 41
0.5
  0
VERTEX
  8
0
 10
181.362
 20
91.3967
 30
0.0
 40
0.5
 41
0.5
  0
VERTEX
  8
0
 10
181.362
 20
91.4043
 30
0.0
 40
0.5
 41
0.5
  0
VERTEX
  8
0
 10
181.362
 20
91.4119
 30
0.0
 40
0.5
 41
0.5
  0
VERTEX
  8
0
 10
181.36
 20
91.4792
 30
0.0
 40
0.5
 41
0.5
  0
VERTEX
  8
0
 10
181.35
 20
91.5559
 30
0.0
 40
0.5
 41
0.5
  0
VERTEX
  8
0
 10
181.231
 20
91.7239
 30
0.0
 40
0.5
 41
0.5
  0
VERTEX
  8
0
 10
180.885
 20
91.7988
 30
0.0
 40
0.5
 41
0.5
  0
VERTEX
  8
0
 10
180.852
 20
91.7988
 30
0.0
 40
0.5
 41
0.5
  0
VERTEX
  8
0
 10
180.816
 20
91.7988
 30
0.0
 40
0.5
 41
0.5
  0
VERTEX
  8
0
 10
180.816
 20
91.8018
 30
0.0
 40
0.5
 41
0.5
  0
SEQEND
  8
0
  0
POLYLINE
8
0
 62
     0
 66
     1
 10
0
 20
0
 30
0.0
 70
     1
 40
0.5
 41
0.5
  0
VERTEX
  8
0
 10
210.503
 20
76.6077
 30
0.0
 40
0.5
 41
0.5
  0
VERTEX
  8
0
 10
210.527
 20
76.6467
 30
0.0
 40
0.5
 41
0.5
  0
VERTEX
  8
0
 10
210.575
 20
76.7039
 30
0.0
 40
0.5
 41
0.5
  0
VERTEX
  8
0
 10
210.693
 20
76.7817
 30
0.0
 40
0.5
 41
0.5
  0
VERTEX
  8
0
 10
210.881
 20
76.8176
 30
0.0
 40
0.5
 41
0.5
  0
VERTEX
  8
0
 10
210.936
 20
76.8147
 30
0.0
 40
0.5
 41
0.5
  0
VERTEX
  8
0
 10
210.992
 20
76.8057
 30
0.0
 40
0.5
 41
0.5
  0
VERTEX
  8
0
 10
211.152
 20
76.7322
 30
0.0
 40
0.5
 41
0.5
  0
VERTEX
  8
0
 10
211.283
 20
76.5598
 30
0.0
 40
0.5
 41
0.5
  0
VERTEX
  8
0
 10
211.308
 20
76.5972
 30
0.0
 40
0.5
 41
0.5
  0
VERTEX
  8
0
 10
211.337
 20
76.6348
 30
0.0
 40
0.5
 41
0.5
  0
VERTEX
  8
0
 10
211.493
 20
76.7607
 30
0.0
 40
0.5
 41
0.5
  0
VERTEX
  8
0
 10
211.724
 20
76.8208
 30
0.0
 40
0.5
 41
0.5
  0
VERTEX
  8
0
 10
211.752
 20
76.8208
 30
0.0
 40
0.5
 41
0.5
  0
VERTEX
  8
0
 10
211.778
 20
76.8176
 30
0.0
 40
0.5
 41
0.5
  0
VERTEX
  8
0
 10
212.103
 20
76.6257
 30
0.0
 40
0.5
 41
0.5
  0
VERTEX
  8
0
 10
212.18
 20
76.2026
 30
0.0
 40
0.5
 41
0.5
  0
VERTEX
  8
0
 10
212.18
 20
75.3567
 30
0.0
 40
0.5
 41
0.5
  0
VERTEX
  8
0
 10
211.919
 20
75.3567
 30
0.0
 40
0.5
 41
0.5
  0
VERTEX
  8
0
 10
211.919
 20
76.2058
 30
0.0
 40
0.5
 41
0.5
  0
VERTEX
  8
0
 10
211.86
 20
76.4607
 30
0.0
 40
0.5
 41
0.5
  0
VERTEX
  8
0
 10
211.661
 20
76.5598
 30
0.0
 40
0.5
 41
0.5
  0
VERTEX
  8
0
 10
211.436
 20
76.4773
 30
0.0
 40
0.5
 41
0.5
  0
VERTEX
  8
0
 10
211.352
 20
76.1816
 30
0.0
 40
0.5
 41
0.5
  0
VERTEX
  8
0
 10
211.352
 20
75.3567
 30
0.0
 40
0.5
 41
0.5
  0
VERTEX
  8
0
 10
211.07
 20
75.3567
 30
0.0
 40
0.5
 41
0.5
  0
VERTEX
  8
0
 10
211.07
 20
76.2537
 30
0.0
 40
0.5
 41
0.5
  0
VERTEX
  8
0
 10
211.005
 20
76.4697
 30
0.0
 40
0.5
 41
0.5
  0
VERTEX
  8
0
 10
210.865
 20
76.5537
 30
0.0
 40
0.5
 41
0.5
  0
VERTEX
  8
0
 10
210.837
 20
76.5583
 30
0.0
 40
0.5
 41
0.5
  0
VERTEX
  8
0
 10
210.809
 20
76.5598
 30
0.0
 40
0.5
 41
0.5
  0
VERTEX
  8
0
 10
210.781
 20
76.5598
 30
0.0
 40
0.5
 41
0.5
  0
VERTEX
  8
0
 10
210.755
 20
76.5566
 30
0.0
 40
0.5
 41
0.5
  0
VERTEX
  8
0
 10
210.581
 20
76.4758
 30
0.0
 40
0.5
 41
0.5
  0
VERTEX
  8
0
 10
210.503
 20
76.2026
 30
0.0
 40
0.5
 41
0.5
  0
VERTEX
  8
0
 10
210.503
 20
75.3567
 30
0.0
 40
0.5
 41
0.5
  0
VERTEX
  8
0
 10
210.218
 20
75.3567
 30
0.0
 40
0.5
 41
0.5
  0
VERTEX
  8
0
 10
210.218
 20
76.7517
 30
0.0
 40
0.5
 41
0.5
  0
VERTEX
  8
0
 10
210.503
 20
76.7517
 30
0.0
 40
0.5
 41
0.5
  0
VERTEX
  8
0
 10
210.503
 20
76.6077
 30
0.0
 40
0.5
 41
0.5
  0
SEQEND
  8
0
  0
POLYLINE
8
0
 62
     0
 66
     1
 10
0
 20
0
 30
0.0
 70
     1
 40
0.5
 41
0.5
  0
VERTEX
  8
0
 10
212.883
 20
76.7517
 30
0.0
 40
0.5
 41
0.5
  0
VERTEX
  8
0
 10
212.883
 20
75.3567
 30
0.0
 40
0.5
 41
0.5
  0
VERTEX
  8
0
 10
212.601
 20
75.3567
 30
0.0
 40
0.5
 41
0.5
  0
VERTEX
  8
0
 10
212.601
 20
76.7517
 30
0.0
 40
0.5
 41
0.5
  0
VERTEX
  8
0
 10
212.883
 20
76.7517
 30
0.0
 40
0.5
 41
0.5
  0
SEQEND
  8
0
  0
POLYLINE
8
0
 62
     0
 66
     1
 10
0
 20
0
 30
0.0
 70
     1
 40
0.5
 41
0.5
  0
VERTEX
  8
0
 10
212.742
 20
77.5767
 30
0.0
 40
0.5
 41
0.5
  0
VERTEX
  8
0
 10
212.871
 20
77.5168
 30
0.0
 40
0.5
 41
0.5
  0
VERTEX
  8
0
 10
212.913
 20
77.4087
 30
0.0
 40
0.5
 41
0.5
  0
VERTEX
  8
0
 10
212.913
 20
77.4043
 30
0.0
 40
0.5
 41
0.5
  0
VERTEX
  8
0
 10
212.913
 20
77.3997
 30
0.0
 40
0.5
 41
0.5
  0
VERTEX
  8
0
 10
212.863
 20
77.2769
 30
0.0
 40
0.5
 41
0.5
  0
VERTEX
  8
0
 10
212.742
 20
77.2197
 30
0.0
 40
0.5
 41
0.5
  0
VERTEX
  8
0
 10
212.61
 20
77.2737
 30
0.0
 40
0.5
 41
0.5
  0
VERTEX
  8
0
 10
212.565
 20
77.3938
 30
0.0
 40
0.5
 41
0.5
  0
VERTEX
  8
0
 10
212.607
 20
77.5183
 30
0.0
 40
0.5
 41
0.5
  0
VERTEX
  8
0
 10
212.742
 20
77.5737
 30
0.0
 40
0.5
 41
0.5
  0
VERTEX
  8
0
 10
212.742
 20
77.5767
 30
0.0
 40
0.5
 41
0.5
  0
SEQEND
  8
0
  0
POLYLINE
8
0
 62
     0
 66
     1
 10
0
 20
0
 30
0.0
 70
     1
 40
0.5
 41
0.5
  0
VERTEX
  8
0
 10
213.566
 20
76.7517
 30
0.0
 40
0.5
 41
0.5
  0
VERTEX
  8
0
 10
213.566
 20
76.5627
 30
0.0
 40
0.5
 41
0.5
  0
VERTEX
  8
0
 10
213.65
 20
76.6423
 30
0.0
 40
0.5
 41
0.5
  0
VERTEX
  8
0
 10
213.722
 20
76.7039
 30
0.0
 40
0.5
 41
0.5
  0
VERTEX
  8
0
 10
213.84
 20
76.7622
 30
0.0
 40
0.5
 41
0.5
  0
VERTEX
  8
0
 10
214.013
 20
76.7937
 30
0.0
 40
0.5
 41
0.5
  0
VERTEX
  8
0
 10
214.079
 20
76.7908
 30
0.0
 40
0.5
 41
0.5
  0
VERTEX
  8
0
 10
214.148
 20
76.7788
 30
0.0
 40
0.5
 41
0.5
  0
VERTEX
  8
0
 10
214.397
 20
76.6348
 30
0.0
 40
0.5
 41
0.5
  0
VERTEX
  8
0
 10
214.511
 20
76.2988
 30
0.0
 40
0.5
 41
0.5
  0
VERTEX
  8
0
 10
214.511
 20
75.3567
 30
0.0
 40
0.5
 41
0.5
  0
VERTEX
  8
0
 10
214.226
 20
75.3567
 30
0.0
 40
0.5
 41
0.5
  0
VERTEX
  8
0
 10
214.226
 20
76.3018
 30
0.0
 40
0.5
 41
0.5
  0
VERTEX
  8
0
 10
214.148
 20
76.4727
 30
0.0
 40
0.5
 41
0.5
  0
VERTEX
  8
0
 10
213.974
 20
76.5537
 30
0.0
 40
0.5
 41
0.5
  0
VERTEX
  8
0
 10
213.947
 20
76.5583
 30
0.0
 40
0.5
 41
0.5
  0
VERTEX
  8
0
 10
213.92
 20
76.5598
 30
0.0
 40
0.5
 41
0.5
  0
VERTEX
  8
0
 10
213.915
 20
76.5598
 30
0.0
 40
0.5
 41
0.5
  0
VERTEX
  8
0
 10
213.911
 20
76.5598
 30
0.0
 40
0.5
 41
0.5
  0
VERTEX
  8
0
 10
213.689
 20
76.4607
 30
0.0
 40
0.5
 41
0.5
  0
VERTEX
  8
0
 10
213.587
 20
76.1577
 30
0.0
 40
0.5
 41
0.5
  0
VERTEX
  8
0
 10
213.587
 20
75.3567
 30
0.0
 40
0.5
 41
0.5
  0
VERTEX
  8
0
 10
213.305
 20
75.3567
 30
0.0
 40
0.5
 41
0.5
  0
VERTEX
  8
0
 10
213.305
 20
76.7517
 30
0.0
 40
0.5
 41
0.5
  0
VERTEX
  8
0
 10
213.566
 20
76.7517
 30
0.0
 40
0.5
 41
0.5
  0
SEQEND
  8
0
  0
POLYLINE
8
0
 62
     0
 66
     1
 10
0
 20
0
 30
0.0
 70
     1
 40
0.5
 41
0.5
  0
VERTEX
  8
0
 10
224.223
 20
76.8687
 30
0.0
 40
0.5
 41
0.5
  0
VERTEX
  8
0
 10
224.508
 20
76.8687
 30
0.0
 40
0.5
 41
0.5
  0
VERTEX
  8
0
 10
224.508
 20
76.2537
 30
0.0
 40
0.5
 41
0.5
  0
VERTEX
  8
0
 10
225.144
 20
76.2537
 30
0.0
 40
0.5
 41
0.5
  0
VERTEX
  8
0
 10
225.144
 20
75.9956
 30
0.0
 40
0.5
 41
0.5
  0
VERTEX
  8
0
 10
224.508
 20
75.9956
 30
0.0
 40
0.5
 41
0.5
  0
VERTEX
  8
0
 10
224.508
 20
75.3567
 30
0.0
 40
0.5
 41
0.5
  0
VERTEX
  8
0
 10
224.223
 20
75.3567
 30
0.0
 40
0.5
 41
0.5
  0
VERTEX
  8
0
 10
224.223
 20
75.9956
 30
0.0
 40
0.5
 41
0.5
  0
VERTEX
  8
0
 10
223.608
 20
75.9956
 30
0.0
 40
0.5
 41
0.5
  0
VERTEX
  8
0
 10
223.608
 20
76.2537
 30
0.0
 40
0.5
 41
0.5
  0
VERTEX
  8
0
 10
224.223
 20
76.2537
 30
0.0
 40
0.5
 41
0.5
  0
VERTEX
  8
0
 10
224.223
 20
76.8687
 30
0.0
 40
0.5
 41
0.5
  0
SEQEND
  8
0
  0
POLYLINE
8
0
 62
     0
 66
     1
 10
0
 20
0
 30
0.0
 70
     1
 40
0.5
 41
0.5
  0
VERTEX
  8
0
 10
225.568
 20
77.3635
 30
0.0
 40
0.5
 41
0.5
  0
VERTEX
  8
0
 10
225.733
 20
77.6487
 30
0.0
 40
0.5
 41
0.5
  0
VERTEX
  8
0
 10
226.231
 20
77.6487
 30
0.0
 40
0.5
 41
0.5
  0
VERTEX
  8
0
 10
226.231
 20
75.3567
 30
0.0
 40
0.5
 41
0.5
  0
VERTEX
  8
0
 10
225.946
 20
75.3567
 30
0.0
 40
0.5
 41
0.5
  0
VERTEX
  8
0
 10
225.946
 20
77.3635
 30
0.0
 40
0.5
 41
0.5
  0
VERTEX
  8
0
 10
225.568
 20
77.3635
 30
0.0
 40
0.5
 41
0.5
  0
SEQEND
  8
0
  0
POLYLINE
8
0
 62
     0
 66
     1
 10
0
 20
0
 30
0.0
 70
     1
 40
0.5
 41
0.5
  0
VERTEX
  8
0
 10
228.095
 20
76.6077
 30
0.0
 40
0.5
 41
0.5
  0
VERTEX
  8
0
 10
228.224
 20
76.8101
 30
0.0
 40
0.5
 41
0.5
  0
VERTEX
  8
0
 10
228.263
 20
76.9917
 30
0.0
 40
0.5
 41
0.5
  0
VERTEX
  8
0
 10
228.142
 20
77.2676
 30
0.0
 40
0.5
 41
0.5
  0
VERTEX
  8
0
 10
227.867
 20
77.3845
 30
0.0
 40
0.5
 41
0.5
  0
VERTEX
  8
0
 10
227.851
 20
77.3845
 30
0.0
 40
0.5
 41
0.5
  0
VERTEX
  8
0
 10
227.834
 20
77.3845
 30
0.0
 40
0.5
 41
0.5
  0
VERTEX
  8
0
 10
227.533
 20
77.2766
 30
0.0
 40
0.5
 41
0.5
  0
VERTEX
  8
0
 10
227.405
 20
77.0396
 30
0.0
 40
0.5
 41
0.5
  0
VERTEX
  8
0
 10
227.405
 20
77.0276
 30
0.0
 40
0.5
 41
0.5
  0
VERTEX
  8
0
 10
227.405
 20
77.0156
 30
0.0
 40
0.5
 41
0.5
  0
VERTEX
  8
0
 10
227.405
 20
77.0081
 30
0.0
 40
0.5
 41
0.5
  0
VERTEX
  8
0
 10
227.408
 20
77.0007
 30
0.0
 40
0.5
 41
0.5
  0
VERTEX
  8
0
 10
227.408
 20
76.9917
 30
0.0
 40
0.5
 41
0.5
  0
VERTEX
  8
0
 10
227.408
 20
76.9827
 30
0.0
 40
0.5
 41
0.5
  0
VERTEX
  8
0
 10
227.102
 20
76.9856
 30
0.0
 40
0.5
 41
0.5
  0
VERTEX
  8
0
 10
227.306
 20
77.4478
 30
0.0
 40
0.5
 41
0.5
  0
VERTEX
  8
0
 10
227.81
 20
77.6458
 30
0.0
 40
0.5
 41
0.5
  0
VERTEX
  8
0
 10
227.828
 20
77.6458
 30
0.0
 40
0.5
 41
0.5
  0
VERTEX
  8
0
 10
227.846
 20
77.6458
 30
0.0
 40
0.5
 41
0.5
  0
VERTEX
  8
0
 10
228.377
 20
77.4583
 30
0.0
 40
0.5
 41
0.5
  0
VERTEX
  8
0
 10
228.578
 20
77.0037
 30
0.0
 40
0.5
 41
0.5
  0
VERTEX
  8
0
 10
228.563
 20
76.8643
 30
0.0
 40
0.5
 41
0.5
  0
VERTEX
  8
0
 10
228.515
 20
76.7246
 30
0.0
 40
0.5
 41
0.5
  0
VERTEX
  8
0
 10
228.457
 20
76.6167
 30
0.0
 40
0.5
 41
0.5
  0
VERTEX
  8
0
 10
228.377
 20
76.5117
 30
0.0
 40
0.5
 41
0.5
  0
VERTEX
  8
0
 10
227.621
 20
75.6177
 30
0.0
 40
0.5
 41
0.5
  0
VERTEX
  8
0
 10
228.542
 20
75.6177
 30
0.0
 40
0.5
 41
0.5
  0
VERTEX
  8
0
 10
228.542
 20
75.3567
 30
0.0
 40
0.5
 41
0.5
  0
VERTEX
  8
0
 10
227.078
 20
75.3567
 30
0.0
 40
0.5
 41
0.5
  0
VERTEX
  8
0
 10
228.095
 20
76.6077
 30
0.0
 40
0.5
 41
0.5
  0
SEQEND
  8
0
  0
POLYLINE
8
0
 62
     0
 66
     1
 10
0
 20
0
 30
0.0
 70
     1
 40
0.5
 41
0.5
  0
VERTEX
  8
0
 10
230.148
 20
77.9788
 30
0.0
 40
0.5
 41
0.5
  0
VERTEX
  8
0
 10
230.148
 20
75.3567
 30
0.0
 40
0.5
 41
0.5
  0
VERTEX
  8
0
 10
229.887
 20
75.3567
 30
0.0
 40
0.5
 41
0.5
  0
VERTEX
  8
0
 10
229.887
 20
75.5938
 30
0.0
 40
0.5
 41
0.5
  0
VERTEX
  8
0
 10
229.789
 20
75.4631
 30
0.0
 40
0.5
 41
0.5
  0
VERTEX
  8
0
 10
229.68
 20
75.3777
 30
0.0
 40
0.5
 41
0.5
  0
VERTEX
  8
0
 10
229.537
 20
75.3237
 30
0.0
 40
0.5
 41
0.5
  0
VERTEX
  8
0
 10
229.417
 20
75.3086
 30
0.0
 40
0.5
 41
0.5
  0
VERTEX
  8
0
 10
229.398
 20
75.3086
 30
0.0
 40
0.5
 41
0.5
  0
VERTEX
  8
0
 10
229.38
 20
75.3086
 30
0.0
 40
0.5
 41
0.5
  0
VERTEX
  8
0
 10
228.967
 20
75.4512
 30
0.0
 40
0.5
 41
0.5
  0
VERTEX
  8
0
 10
228.753
 20
75.7737
 30
0.0
 40
0.5
 41
0.5
  0
VERTEX
  8
0
 10
228.719
 20
75.9102
 30
0.0
 40
0.5
 41
0.5
  0
VERTEX
  8
0
 10
228.708
 20
76.0376
 30
0.0
 40
0.5
 41
0.5
  0
VERTEX
  8
0
 10
228.902
 20
76.6062
 30
0.0
 40
0.5
 41
0.5
  0
VERTEX
  8
0
 10
229.33
 20
76.8147
 30
0.0
 40
0.5
 41
0.5
  0
VERTEX
  8
0
 10
229.361
 20
76.8176
 30
0.0
 40
0.5
 41
0.5
  0
VERTEX
  8
0
 10
229.393
 20
76.8176
 30
0.0
 40
0.5
 41
0.5
  0
VERTEX
  8
0
 10
229.468
 20
76.8132
 30
0.0
 40
0.5
 41
0.5
  0
VERTEX
  8
0
 10
229.545
 20
76.7996
 30
0.0
 40
0.5
 41
0.5
  0
VERTEX
  8
0
 10
229.727
 20
76.7188
 30
0.0
 40
0.5
 41
0.5
  0
VERTEX
  8
0
 10
229.866
 20
76.5596
 30
0.0
 40
0.5
 41
0.5
  0
VERTEX
  8
0
 10
229.866
 20
77.9788
 30
0.0
 40
0.5
 41
0.5
  0
VERTEX
  8
0
 10
230.148
 20
77.9788
 30
0.0
 40
0.5
 41
0.5
  0
SEQEND
  8
0
  0
POLYLINE
8
0
 62
     0
 66
     1
 10
0
 20
0
 30
0.0
 70
     1
 40
0.5
 41
0.5
  0
VERTEX
  8
0
 10
229.866
 20
76.0886
 30
0.0
 40
0.5
 41
0.5
  0
VERTEX
  8
0
 10
229.76
 20
76.4487
 30
0.0
 40
0.5
 41
0.5
  0
VERTEX
  8
0
 10
229.44
 20
76.5806
 30
0.0
 40
0.5
 41
0.5
  0
VERTEX
  8
0
 10
229.136
 20
76.4531
 30
0.0
 40
0.5
 41
0.5
  0
VERTEX
  8
0
 10
229.002
 20
76.1726
 30
0.0
 40
0.5
 41
0.5
  0
VERTEX
  8
0
 10
228.993
 20
76.1052
 30
0.0
 40
0.5
 41
0.5
  0
VERTEX
  8
0
 10
228.99
 20
76.0376
 30
0.0
 40
0.5
 41
0.5
  0
VERTEX
  8
0
 10
229
 20
75.9431
 30
0.0
 40
0.5
 41
0.5
  0
VERTEX
  8
0
 10
229.029
 20
75.8367
 30
0.0
 40
0.5
 41
0.5
  0
VERTEX
  8
0
 10
229.166
 20
75.634
 30
0.0
 40
0.5
 41
0.5
  0
VERTEX
  8
0
 10
229.44
 20
75.5427
 30
0.0
 40
0.5
 41
0.5
  0
VERTEX
  8
0
 10
229.736
 20
75.6702
 30
0.0
 40
0.5
 41
0.5
  0
VERTEX
  8
0
 10
229.854
 20
75.9507
 30
0.0
 40
0.5
 41
0.5
  0
VERTEX
  8
0
 10
229.863
 20
76.0181
 30
0.0
 40
0.5
 41
0.5
  0
VERTEX
  8
0
 10
229.866
 20
76.0857
 30
0.0
 40
0.5
 41
0.5
  0
VERTEX
  8
0
 10
229.866
 20
76.0886
 30
0.0
 40
0.5
 41
0.5
  0
SEQEND
  8
0
  0
POLYLINE
8
0
 62
     0
 66
     1
 10
0
 20
0
 30
0.0
 70
     1
 40
0.5
 41
0.5
  0
VERTEX
  8
0
 10
230.787
 20
77.6006
 30
0.0
 40
0.5
 41
0.5
  0
VERTEX
  8
0
 10
230.899
 20
77.5977
 30
0.0
 40
0.5
 41
0.5
  0
VERTEX
  8
0
 10
231.018
 20
77.5916
 30
0.0
 40
0.5
 41
0.5
  0
VERTEX
  8
0
 10
231.432
 20
77.4836
 30
0.0
 40
0.5
 41
0.5
  0
VERTEX
  8
0
 10
231.636
 20
77.0786
 30
0.0
 40
0.5
 41
0.5
  0
VERTEX
  8
0
 10
231.565
 20
76.759
 30
0.0
 40
0.5
 41
0.5
  0
VERTEX
  8
0
 10
231.354
 20
76.5806
 30
0.0
 40
0.5
 41
0.5
  0
VERTEX
  8
0
 10
231.387
 20
76.5776
 30
0.0
 40
0.5
 41
0.5
  0
VERTEX
  8
0
 10
231.42
 20
76.5686
 30
0.0
 40
0.5
 41
0.5
  0
VERTEX
  8
0
 10
231.715
 20
76.3677
 30
0.0
 40
0.5
 41
0.5
  0
VERTEX
  8
0
 10
231.849
 20
75.9688
 30
0.0
 40
0.5
 41
0.5
  0
VERTEX
  8
0
 10
231.613
 20
75.5127
 30
0.0
 40
0.5
 41
0.5
  0
VERTEX
  8
0
 10
231.021
 20
75.3567
 30
0.0
 40
0.5
 41
0.5
  0
VERTEX
  8
0
 10
230.502
 20
75.3567
 30
0.0
 40
0.5
 41
0.5
  0
VERTEX
  8
0
 10
230.502
 20
77.6006
 30
0.0
 40
0.5
 41
0.5
  0
VERTEX
  8
0
 10
230.787
 20
77.6006
 30
0.0
 40
0.5
 41
0.5
  0
SEQEND
  8
0
  0
POLYLINE
8
0
 62
     0
 66
     1
 10
0
 20
0
 30
0.0
 70
     1
 40
0.5
 41
0.5
  0
VERTEX
  8
0
 10
230.808
 20
76.4187
 30
0.0
 40
0.5
 41
0.5
  0
VERTEX
  8
0
 10
230.808
 20
75.5938
 30
0.0
 40
0.5
 41
0.5
  0
VERTEX
  8
0
 10
230.895
 20
75.5833
 30
0.0
 40
0.5
 41
0.5
  0
VERTEX
  8
0
 10
230.976
 20
75.5786
 30
0.0
 40
0.5
 41
0.5
  0
VERTEX
  8
0
 10
231.309
 20
75.6431
 30
0.0
 40
0.5
 41
0.5
  0
VERTEX
  8
0
 10
231.486
 20
75.7856
 30
0.0
 40
0.5
 41
0.5
  0
VERTEX
  8
0
 10
231.529
 20
75.8726
 30
0.0
 40
0.5
 41
0.5
  0
VERTEX
  8
0
 10
231.543
 20
75.9446
 30
0.0
 40
0.5
 41
0.5
  0
VERTEX
  8
0
 10
231.543
 20
75.9626
 30
0.0
 40
0.5
 41
0.5
  0
VERTEX
  8
0
 10
231.543
 20
75.9836
 30
0.0
 40
0.5
 41
0.5
  0
VERTEX
  8
0
 10
231.364
 20
76.3137
 30
0.0
 40
0.5
 41
0.5
  0
VERTEX
  8
0
 10
230.808
 20
76.4155
 30
0.0
 40
0.5
 41
0.5
  0
VERTEX
  8
0
 10
230.808
 20
76.4187
 30
0.0
 40
0.5
 41
0.5
  0
SEQEND
  8
0
  0
POLYLINE
8
0
 62
     0
 66
     1
 10
0
 20
0
 30
0.0
 70
     1
 40
0.5
 41
0.5
  0
VERTEX
  8
0
 10
230.808
 20
77.3877
 30
0.0
 40
0.5
 41
0.5
  0
VERTEX
  8
0
 10
230.808
 20
76.6316
 30
0.0
 40
0.5
 41
0.5
  0
VERTEX
  8
0
 10
230.857
 20
76.6257
 30
0.0
 40
0.5
 41
0.5
  0
VERTEX
  8
0
 10
230.907
 20
76.6257
 30
0.0
 40
0.5
 41
0.5
  0
VERTEX
  8
0
 10
231.24
 20
76.7083
 30
0.0
 40
0.5
 41
0.5
  0
VERTEX
  8
0
 10
231.354
 20
76.9827
 30
0.0
 40
0.5
 41
0.5
  0
VERTEX
  8
0
 10
231.354
 20
76.9902
 30
0.0
 40
0.5
 41
0.5
  0
VERTEX
  8
0
 10
231.354
 20
76.9976
 30
0.0
 40
0.5
 41
0.5
  0
VERTEX
  8
0
 10
231.352
 20
77.0652
 30
0.0
 40
0.5
 41
0.5
  0
VERTEX
  8
0
 10
231.342
 20
77.1416
 30
0.0
 40
0.5
 41
0.5
  0
VERTEX
  8
0
 10
231.223
 20
77.3096
 30
0.0
 40
0.5
 41
0.5
  0
VERTEX
  8
0
 10
230.877
 20
77.3845
 30
0.0
 40
0.5
 41
0.5
  0
VERTEX
  8
0
 10
230.844
 20
77.3845
 30
0.0
 40
0.5
 41
0.5
  0
VERTEX
  8
0
 10
230.808
 20
77.3845
 30
0.0
 40
0.5
 41
0.5
  0
VERTEX
  8
0
 10
230.808
 20
77.3877
 30
0.0
 40
0.5
 41
0.5
  0
SEQEND
  8
0
  0
POLYLINE
8
0
 62
     0
 66
     1
 10
0
 20
0
 30
0.0
 70
     1
 40
0.5
 41
0.5
  0
VERTEX
  8
0
 10
217.032
 20
96.6628
 30
0.0
 40
0.5
 41
0.5
  0
VERTEX
  8
0
 10
217.032
 20
96.1909
 30
0.0
 40
0.5
 41
0.5
  0
VERTEX
  8
0
 10
216.798
 20
96.1069
 30
0.0
 40
0.5
 41
0.5
  0
VERTEX
  8
0
 10
216.544
 20
96.0789
 30
0.0
 40
0.5
 41
0.5
  0
VERTEX
  8
0
 10
216.512
 20
96.0789
 30
0.0
 40
0.5
 41
0.5
  0
VERTEX
  8
0
 10
216.48
 20
96.0789
 30
0.0
 40
0.5
 41
0.5
  0
VERTEX
  8
0
 10
215.82
 20
96.3389
 30
0.0
 40
0.5
 41
0.5
  0
VERTEX
  8
0
 10
215.52
 20
97.0669
 30
0.0
 40
0.5
 41
0.5
  0
VERTEX
  8
0
 10
215.826
 20
97.8469
 30
0.0
 40
0.5
 41
0.5
  0
VERTEX
  8
0
 10
216.52
 20
98.103
 30
0.0
 40
0.5
 41
0.5
  0
VERTEX
  8
0
 10
216.796
 20
98.075
 30
0.0
 40
0.5
 41
0.5
  0
VERTEX
  8
0
 10
217.06
 20
97.9829
 30
0.0
 40
0.5
 41
0.5
  0
VERTEX
  8
0
 10
217.06
 20
97.5149
 30
0.0
 40
0.5
 41
0.5
  0
VERTEX
  8
0
 10
216.958
 20
97.6169
 30
0.0
 40
0.5
 41
0.5
  0
VERTEX
  8
0
 10
216.852
 20
97.687
 30
0.0
 40
0.5
 41
0.5
  0
VERTEX
  8
0
 10
216.642
 20
97.7529
 30
0.0
 40
0.5
 41
0.5
  0
VERTEX
  8
0
 10
216.496
 20
97.7629
 30
0.0
 40
0.5
 41
0.5
  0
VERTEX
  8
0
 10
216.038
 20
97.5369
 30
0.0
 40
0.5
 41
0.5
  0
VERTEX
  8
0
 10
215.88
 20
97.0989
 30
0.0
 40
0.5
 41
0.5
  0
VERTEX
  8
0
 10
215.88
 20
97.093
 30
0.0
 40
0.5
 41
0.5
  0
VERTEX
  8
0
 10
215.88
 20
97.0869
 30
0.0
 40
0.5
 41
0.5
  0
VERTEX
  8
0
 10
216.03
 20
96.6409
 30
0.0
 40
0.5
 41
0.5
  0
VERTEX
  8
0
 10
216.468
 20
96.439
 30
0.0
 40
0.5
 41
0.5
  0
VERTEX
  8
0
 10
216.482
 20
96.439
 30
0.0
 40
0.5
 41
0.5
  0
VERTEX
  8
0
 10
216.496
 20
96.439
 30
0.0
 40
0.5
 41
0.5
  0
VERTEX
  8
0
 10
216.666
 20
96.457
 30
0.0
 40
0.5
 41
0.5
  0
VERTEX
  8
0
 10
216.944
 20
96.5869
 30
0.0
 40
0.5
 41
0.5
  0
VERTEX
  8
0
 10
216.99
 20
96.6208
 30
0.0
 40
0.5
 41
0.5
  0
VERTEX
  8
0
 10
217.032
 20
96.6589
 30
0.0
 40
0.5
 41
0.5
  0
VERTEX
  8
0
 10
217.032
 20
96.6628
 30
0.0
 40
0.5
 41
0.5
  0
SEQEND
  8
0
  0
POLYLINE
8
0
 62
     0
 66
     1
 10
0
 20
0
 30
0.0
 70
     1
 40
0.5
 41
0.5
  0
VERTEX
  8
0
 10
217.757
 20
99.623
 30
0.0
 40
0.5
 41
0.5
  0
VERTEX
  8
0
 10
217.757
 20
97.7949
 30
0.0
 40
0.5
 41
0.5
  0
VERTEX
  8
0
 10
218.003
 20
98.021
 30
0.0
 40
0.5
 41
0.5
  0
VERTEX
  8
0
 10
218.321
 20
98.1069
 30
0.0
 40
0.5
 41
0.5
  0
VERTEX
  8
0
 10
218.795
 20
97.959
 30
0.0
 40
0.5
 41
0.5
  0
VERTEX
  8
0
 10
218.985
 20
97.3831
 30
0.0
 40
0.5
 41
0.5
  0
VERTEX
  8
0
 10
218.985
 20
96.1589
 30
0.0
 40
0.5
 41
0.5
  0
VERTEX
  8
0
 10
218.637
 20
96.1589
 30
0.0
 40
0.5
 41
0.5
  0
VERTEX
  8
0
 10
218.637
 20
97.387
 30
0.0
 40
0.5
 41
0.5
  0
VERTEX
  8
0
 10
218.527
 20
97.679
 30
0.0
 40
0.5
 41
0.5
  0
VERTEX
  8
0
 10
218.229
 20
97.7629
 30
0.0
 40
0.5
 41
0.5
  0
VERTEX
  8
0
 10
217.863
 20
97.625
 30
0.0
 40
0.5
 41
0.5
  0
VERTEX
  8
0
 10
217.757
 20
97.2271
 30
0.0
 40
0.5
 41
0.5
  0
VERTEX
  8
0
 10
217.757
 20
96.1589
 30
0.0
 40
0.5
 41
0.5
  0
VERTEX
  8
0
 10
217.377
 20
96.1589
 30
0.0
 40
0.5
 41
0.5
  0
VERTEX
  8
0
 10
217.377
 20
99.623
 30
0.0
 40
0.5
 41
0.5
  0
VERTEX
  8
0
 10
217.757
 20
99.623
 30
0.0
 40
0.5
 41
0.5
  0
SEQEND
  8
0
  0
POLYLINE
8
0
 62
     0
 66
     1
 10
0
 20
0
 30
0.0
 70
     1
 40
0.5
 41
0.5
  0
VERTEX
  8
0
 10
220.372
 20
97.6069
 30
0.0
 40
0.5
 41
0.5
  0
VERTEX
  8
0
 10
220.372
 20
97.291
 30
0.0
 40
0.5
 41
0.5
  0
VERTEX
  8
0
 10
219.488
 20
97.291
 30
0.0
 40
0.5
 41
0.5
  0
VERTEX
  8
0
 10
219.488
 20
97.6069
 30
0.0
 40
0.5
 41
0.5
  0
VERTEX
  8
0
 10
220.372
 20
97.6069
 30
0.0
 40
0.5
 41
0.5
  0
SEQEND
  8
0
  0
POLYLINE
8
0
 62
     0
 66
     1
 10
0
 20
0
 30
0.0
 70
     1
 40
0.5
 41
0.5
  0
VERTEX
  8
0
 10
222.138
 20
97.8269
 30
0.0
 40
0.5
 41
0.5
  0
VERTEX
  8
0
 10
222.31
 20
98.0969
 30
0.0
 40
0.5
 41
0.5
  0
VERTEX
  8
0
 10
222.362
 20
98.3389
 30
0.0
 40
0.5
 41
0.5
  0
VERTEX
  8
0
 10
222.2
 20
98.707
 30
0.0
 40
0.5
 41
0.5
  0
VERTEX
  8
0
 10
221.834
 20
98.863
 30
0.0
 40
0.5
 41
0.5
  0
VERTEX
  8
0
 10
221.812
 20
98.863
 30
0.0
 40
0.5
 41
0.5
  0
VERTEX
  8
0
 10
221.79
 20
98.863
 30
0.0
 40
0.5
 41
0.5
  0
VERTEX
  8
0
 10
221.388
 20
98.719
 30
0.0
 40
0.5
 41
0.5
  0
VERTEX
  8
0
 10
221.218
 20
98.4028
 30
0.0
 40
0.5
 41
0.5
  0
VERTEX
  8
0
 10
221.218
 20
98.387
 30
0.0
 40
0.5
 41
0.5
  0
VERTEX
  8
0
 10
221.218
 20
98.3708
 30
0.0
 40
0.5
 41
0.5
  0
VERTEX
  8
0
 10
221.218
 20
98.3608
 30
0.0
 40
0.5
 41
0.5
  0
VERTEX
  8
0
 10
221.222
 20
98.3508
 30
0.0
 40
0.5
 41
0.5
  0
VERTEX
  8
0
 10
221.222
 20
98.3389
 30
0.0
 40
0.5
 41
0.5
  0
VERTEX
  8
0
 10
221.222
 20
98.3269
 30
0.0
 40
0.5
 41
0.5
  0
VERTEX
  8
0
 10
220.814
 20
98.3311
 30
0.0
 40
0.5
 41
0.5
  0
VERTEX
  8
0
 10
221.086
 20
98.947
 30
0.0
 40
0.5
 41
0.5
  0
VERTEX
  8
0
 10
221.758
 20
99.2109
 30
0.0
 40
0.5
 41
0.5
  0
VERTEX
  8
0
 10
221.782
 20
99.2109
 30
0.0
 40
0.5
 41
0.5
  0
VERTEX
  8
0
 10
221.806
 20
99.2109
 30
0.0
 40
0.5
 41
0.5
  0
VERTEX
  8
0
 10
222.514
 20
98.9609
 30
0.0
 40
0.5
 41
0.5
  0
VERTEX
  8
0
 10
222.782
 20
98.355
 30
0.0
 40
0.5
 41
0.5
  0
VERTEX
  8
0
 10
222.762
 20
98.1689
 30
0.0
 40
0.5
 41
0.5
  0
VERTEX
  8
0
 10
222.698
 20
97.9829
 30
0.0
 40
0.5
 41
0.5
  0
VERTEX
  8
0
 10
222.62
 20
97.8389
 30
0.0
 40
0.5
 41
0.5
  0
VERTEX
  8
0
 10
222.514
 20
97.699
 30
0.0
 40
0.5
 41
0.5
  0
VERTEX
  8
0
 10
221.506
 20
96.5068
 30
0.0
 40
0.5
 41
0.5
  0
VERTEX
  8
0
 10
222.734
 20
96.5068
 30
0.0
 40
0.5
 41
0.5
  0
VERTEX
  8
0
 10
222.734
 20
96.1589
 30
0.0
 40
0.5
 41
0.5
  0
VERTEX
  8
0
 10
220.782
 20
96.1589
 30
0.0
 40
0.5
 41
0.5
  0
VERTEX
  8
0
 10
222.138
 20
97.8269
 30
0.0
 40
0.5
 41
0.5
  0
SEQEND
  8
0
  0
POLYLINE
8
0
 62
     0
 66
     1
 10
0
 20
0
 30
0.0
 70
     1
 40
0.5
 41
0.5
  0
VERTEX
  8
0
 10
216.702
 20
90.9048
 30
0.0
 40
0.5
 41
0.5
  0
VERTEX
  8
0
 10
216.699
 20
90.9243
 30
0.0
 40
0.5
 41
0.5
  0
VERTEX
  8
0
 10
216.699
 20
90.95
 30
0.0
 40
0.5
 41
0.5
  0
VERTEX
  8
0
 10
216.722
 20
91.1777
 30
0.0
 40
0.5
 41
0.5
  0
VERTEX
  8
0
 10
216.802
 20
91.4778
 30
0.0
 40
0.5
 41
0.5
  0
VERTEX
  8
0
 10
217.044
 20
91.8948
 30
0.0
 40
0.5
 41
0.5
  0
VERTEX
  8
0
 10
217.479
 20
92.0837
 30
0.0
 40
0.5
 41
0.5
  0
VERTEX
  8
0
 10
218.046
 20
91.7673
 30
0.0
 40
0.5
 41
0.5
  0
VERTEX
  8
0
 10
218.277
 20
91.0728
 30
0.0
 40
0.5
 41
0.5
  0
VERTEX
  8
0
 10
218.282
 20
91.0112
 30
0.0
 40
0.5
 41
0.5
  0
VERTEX
  8
0
 10
218.283
 20
90.95
 30
0.0
 40
0.5
 41
0.5
  0
VERTEX
  8
0
 10
218.274
 20
90.7607
 30
0.0
 40
0.5
 41
0.5
  0
VERTEX
  8
0
 10
218.247
 20
90.5598
 30
0.0
 40
0.5
 41
0.5
  0
VERTEX
  8
0
 10
218.013
 20
89.9839
 30
0.0
 40
0.5
 41
0.5
  0
VERTEX
  8
0
 10
217.503
 20
89.7229
 30
0.0
 40
0.5
 41
0.5
  0
VERTEX
  8
0
 10
217.025
 20
89.9224
 30
0.0
 40
0.5
 41
0.5
  0
VERTEX
  8
0
 10
216.783
 20
90.3618
 30
0.0
 40
0.5
 41
0.5
  0
VERTEX
  8
0
 10
216.719
 20
90.6663
 30
0.0
 40
0.5
 41
0.5
  0
VERTEX
  8
0
 10
216.702
 20
90.9019
 30
0.0
 40
0.5
 41
0.5
  0
VERTEX
  8
0
 10
216.702
 20
90.9048
 30
0.0
 40
0.5
 41
0.5
  0
SEQEND
  8
0
  0
POLYLINE
8
0
 62
     0
 66
     1
 10
0
 20
0
 30
0.0
 70
     1
 40
0.5
 41
0.5
  0
VERTEX
  8
0
 10
218.001
 20
90.929
 30
0.0
 40
0.5
 41
0.5
  0
VERTEX
  8
0
 10
217.885
 20
91.5229
 30
0.0
 40
0.5
 41
0.5
  0
VERTEX
  8
0
 10
217.629
 20
91.8137
 30
0.0
 40
0.5
 41
0.5
  0
VERTEX
  8
0
 10
217.577
 20
91.8364
 30
0.0
 40
0.5
 41
0.5
  0
VERTEX
  8
0
 10
217.527
 20
91.8469
 30
0.0
 40
0.5
 41
0.5
  0
VERTEX
  8
0
 10
217.517
 20
91.8484
 30
0.0
 40
0.5
 41
0.5
  0
VERTEX
  8
0
 10
217.506
 20
91.8499
 30
0.0
 40
0.5
 41
0.5
  0
VERTEX
  8
0
 10
217.496
 20
91.8499
 30
0.0
 40
0.5
 41
0.5
  0
VERTEX
  8
0
 10
217.485
 20
91.8499
 30
0.0
 40
0.5
 41
0.5
  0
VERTEX
  8
0
 10
217.187
 20
91.679
 30
0.0
 40
0.5
 41
0.5
  0
VERTEX
  8
0
 10
217.032
 20
91.304
 30
0.0
 40
0.5
 41
0.5
  0
VERTEX
  8
0
 10
216.995
 20
91.0864
 30
0.0
 40
0.5
 41
0.5
  0
VERTEX
  8
0
 10
216.984
 20
90.9019
 30
0.0
 40
0.5
 41
0.5
  0
VERTEX
  8
0
 10
216.996
 20
90.7219
 30
0.0
 40
0.5
 41
0.5
  0
VERTEX
  8
0
 10
217.035
 20
90.5088
 30
0.0
 40
0.5
 41
0.5
  0
VERTEX
  8
0
 10
217.19
 20
90.1458
 30
0.0
 40
0.5
 41
0.5
  0
VERTEX
  8
0
 10
217.479
 20
89.981
 30
0.0
 40
0.5
 41
0.5
  0
VERTEX
  8
0
 10
217.874
 20
90.2583
 30
0.0
 40
0.5
 41
0.5
  0
VERTEX
  8
0
 10
218.001
 20
90.9258
 30
0.0
 40
0.5
 41
0.5
  0
VERTEX
  8
0
 10
218.001
 20
90.929
 30
0.0
 40
0.5
 41
0.5
  0
SEQEND
  8
0
  0
POLYLINE
8
0
 62
     0
 66
     1
 10
0
 20
0
 30
0.0
 70
     1
 40
0.5
 41
0.5
  0
VERTEX
  8
0
 10
219.842
 20
92.3928
 30
0.0
 40
0.5
 41
0.5
  0
VERTEX
  8
0
 10
219.842
 20
89.7708
 30
0.0
 40
0.5
 41
0.5
  0
VERTEX
  8
0
 10
219.581
 20
89.7708
 30
0.0
 40
0.5
 41
0.5
  0
VERTEX
  8
0
 10
219.581
 20
90.0078
 30
0.0
 40
0.5
 41
0.5
  0
VERTEX
  8
0
 10
219.482
 20
89.8774
 30
0.0
 40
0.5
 41
0.5
  0
VERTEX
  8
0
 10
219.374
 20
89.7917
 30
0.0
 40
0.5
 41
0.5
  0
VERTEX
  8
0
 10
219.229
 20
89.7378
 30
0.0
 40
0.5
 41
0.5
  0
VERTEX
  8
0
 10
219.11
 20
89.7229
 30
0.0
 40
0.5
 41
0.5
  0
VERTEX
  8
0
 10
219.092
 20
89.7229
 30
0.0
 40
0.5
 41
0.5
  0
VERTEX
  8
0
 10
219.073
 20
89.7229
 30
0.0
 40
0.5
 41
0.5
  0
VERTEX
  8
0
 10
218.66
 20
89.8652
 30
0.0
 40
0.5
 41
0.5
  0
VERTEX
  8
0
 10
218.447
 20
90.1877
 30
0.0
 40
0.5
 41
0.5
  0
VERTEX
  8
0
 10
218.412
 20
90.3242
 30
0.0
 40
0.5
 41
0.5
  0
VERTEX
  8
0
 10
218.402
 20
90.4519
 30
0.0
 40
0.5
 41
0.5
  0
VERTEX
  8
0
 10
218.595
 20
91.0203
 30
0.0
 40
0.5
 41
0.5
  0
VERTEX
  8
0
 10
219.023
 20
91.2288
 30
0.0
 40
0.5
 41
0.5
  0
VERTEX
  8
0
 10
219.054
 20
91.2319
 30
0.0
 40
0.5
 41
0.5
  0
VERTEX
  8
0
 10
219.086
 20
91.2319
 30
0.0
 40
0.5
 41
0.5
  0
VERTEX
  8
0
 10
219.161
 20
91.2273
 30
0.0
 40
0.5
 41
0.5
  0
VERTEX
  8
0
 10
219.239
 20
91.2139
 30
0.0
 40
0.5
 41
0.5
  0
VERTEX
  8
0
 10
219.42
 20
91.1328
 30
0.0
 40
0.5
 41
0.5
  0
VERTEX
  8
0
 10
219.56
 20
90.9739
 30
0.0
 40
0.5
 41
0.5
  0
VERTEX
  8
0
 10
219.56
 20
92.3928
 30
0.0
 40
0.5
 41
0.5
  0
VERTEX
  8
0
 10
219.842
 20
92.3928
 30
0.0
 40
0.5
 41
0.5
  0
SEQEND
  8
0
  0
POLYLINE
8
0
 62
     0
 66
     1
 10
0
 20
0
 30
0.0
 70
     1
 40
0.5
 41
0.5
  0
VERTEX
  8
0
 10
219.56
 20
90.5029
 30
0.0
 40
0.5
 41
0.5
  0
VERTEX
  8
0
 10
219.453
 20
90.8628
 30
0.0
 40
0.5
 41
0.5
  0
VERTEX
  8
0
 10
219.134
 20
90.9949
 30
0.0
 40
0.5
 41
0.5
  0
VERTEX
  8
0
 10
218.829
 20
90.8674
 30
0.0
 40
0.5
 41
0.5
  0
VERTEX
  8
0
 10
218.696
 20
90.5869
 30
0.0
 40
0.5
 41
0.5
  0
VERTEX
  8
0
 10
218.687
 20
90.5193
 30
0.0
 40
0.5
 41
0.5
  0
VERTEX
  8
0
 10
218.684
 20
90.4519
 30
0.0
 40
0.5
 41
0.5
  0
VERTEX
  8
0
 10
218.693
 20
90.3574
 30
0.0
 40
0.5
 41
0.5
  0
VERTEX
  8
0
 10
218.723
 20
90.2507
 30
0.0
 40
0.5
 41
0.5
  0
VERTEX
  8
0
 10
218.859
 20
90.0483
 30
0.0
 40
0.5
 41
0.5
  0
VERTEX
  8
0
 10
219.134
 20
89.9568
 30
0.0
 40
0.5
 41
0.5
  0
VERTEX
  8
0
 10
219.429
 20
90.0842
 30
0.0
 40
0.5
 41
0.5
  0
VERTEX
  8
0
 10
219.548
 20
90.3647
 30
0.0
 40
0.5
 41
0.5
  0
VERTEX
  8
0
 10
219.557
 20
90.4324
 30
0.0
 40
0.5
 41
0.5
  0
VERTEX
  8
0
 10
219.56
 20
90.4998
 30
0.0
 40
0.5
 41
0.5
  0
VERTEX
  8
0
 10
219.56
 20
90.5029
 30
0.0
 40
0.5
 41
0.5
  0
SEQEND
  8
0
  0
POLYLINE
8
0
 62
     0
 66
     1
 10
0
 20
0
 30
0.0
 70
     1
 40
0.5
 41
0.5
  0
VERTEX
  8
0
 10
220.48
 20
92.0149
 30
0.0
 40
0.5
 41
0.5
  0
VERTEX
  8
0
 10
220.592
 20
92.0117
 30
0.0
 40
0.5
 41
0.5
  0
VERTEX
  8
0
 10
220.711
 20
92.0059
 30
0.0
 40
0.5
 41
0.5
  0
VERTEX
  8
0
 10
221.125
 20
91.8979
 30
0.0
 40
0.5
 41
0.5
  0
VERTEX
  8
0
 10
221.329
 20
91.4929
 30
0.0
 40
0.5
 41
0.5
  0
VERTEX
  8
0
 10
221.258
 20
91.1733
 30
0.0
 40
0.5
 41
0.5
  0
VERTEX
  8
0
 10
221.047
 20
90.9949
 30
0.0
 40
0.5
 41
0.5
  0
VERTEX
  8
0
 10
221.08
 20
90.9919
 30
0.0
 40
0.5
 41
0.5
  0
VERTEX
  8
0
 10
221.113
 20
90.9829
 30
0.0
 40
0.5
 41
0.5
  0
VERTEX
  8
0
 10
221.408
 20
90.7817
 30
0.0
 40
0.5
 41
0.5
  0
VERTEX
  8
0
 10
221.542
 20
90.3828
 30
0.0
 40
0.5
 41
0.5
  0
VERTEX
  8
0
 10
221.306
 20
89.9268
 30
0.0
 40
0.5
 41
0.5
  0
VERTEX
  8
0
 10
220.714
 20
89.7708
 30
0.0
 40
0.5
 41
0.5
  0
VERTEX
  8
0
 10
220.195
 20
89.7708
 30
0.0
 40
0.5
 41
0.5
  0
VERTEX
  8
0
 10
220.195
 20
92.0149
 30
0.0
 40
0.5
 41
0.5
  0
VERTEX
  8
0
 10
220.48
 20
92.0149
 30
0.0
 40
0.5
 41
0.5
  0
SEQEND
  8
0
  0
POLYLINE
8
0
 62
     0
 66
     1
 10
0
 20
0
 30
0.0
 70
     1
 40
0.5
 41
0.5
  0
VERTEX
  8
0
 10
220.501
 20
90.8328
 30
0.0
 40
0.5
 41
0.5
  0
VERTEX
  8
0
 10
220.501
 20
90.0078
 30
0.0
 40
0.5
 41
0.5
  0
VERTEX
  8
0
 10
220.588
 20
89.9973
 30
0.0
 40
0.5
 41
0.5
  0
VERTEX
  8
0
 10
220.669
 20
89.9929
 30
0.0
 40
0.5
 41
0.5
  0
VERTEX
  8
0
 10
221.002
 20
90.0574
 30
0.0
 40
0.5
 41
0.5
  0
VERTEX
  8
0
 10
221.179
 20
90.2
 30
0.0
 40
0.5
 41
0.5
  0
VERTEX
  8
0
 10
221.222
 20
90.2869
 30
0.0
 40
0.5
 41
0.5
  0
VERTEX
  8
0
 10
221.236
 20
90.3589
 30
0.0
 40
0.5
 41
0.5
  0
VERTEX
  8
0
 10
221.236
 20
90.377
 30
0.0
 40
0.5
 41
0.5
  0
VERTEX
  8
0
 10
221.236
 20
90.3979
 30
0.0
 40
0.5
 41
0.5
  0
VERTEX
  8
0
 10
221.057
 20
90.7278
 30
0.0
 40
0.5
 41
0.5
  0
VERTEX
  8
0
 10
220.501
 20
90.8298
 30
0.0
 40
0.5
 41
0.5
  0
VERTEX
  8
0
 10
220.501
 20
90.8328
 30
0.0
 40
0.5
 41
0.5
  0
SEQEND
  8
0
  0
POLYLINE
8
0
 62
     0
 66
     1
 10
0
 20
0
 30
0.0
 70
     1
 40
0.5
 41
0.5
  0
VERTEX
  8
0
 10
220.501
 20
91.8018
 30
0.0
 40
0.5
 41
0.5
  0
VERTEX
  8
0
 10
220.501
 20
91.0459
 30
0.0
 40
0.5
 41
0.5
  0
VERTEX
  8
0
 10
220.55
 20
91.0398
 30
0.0
 40
0.5
 41
0.5
  0
VERTEX
  8
0
 10
220.6
 20
91.0398
 30
0.0
 40
0.5
 41
0.5
  0
VERTEX
  8
0
 10
220.933
 20
91.1223
 30
0.0
 40
0.5
 41
0.5
  0
VERTEX
  8
0
 10
221.047
 20
91.3967
 30
0.0
 40
0.5
 41
0.5
  0
VERTEX
  8
0
 10
221.047
 20
91.4043
 30
0.0
 40
0.5
 41
0.5
  0
VERTEX
  8
0
 10
221.047
 20
91.4119
 30
0.0
 40
0.5
 41
0.5
  0
VERTEX
  8
0
 10
221.045
 20
91.4792
 30
0.0
 40
0.5
 41
0.5
  0
VERTEX
  8
0
 10
221.035
 20
91.5559
 30
0.0
 40
0.5
 41
0.5
  0
VERTEX
  8
0
 10
220.916
 20
91.7239
 30
0.0
 40
0.5
 41
0.5
  0
VERTEX
  8
0
 10
220.57
 20
91.7988
 30
0.0
 40
0.5
 41
0.5
  0
VERTEX
  8
0
 10
220.537
 20
91.7988
 30
0.0
 40
0.5
 41
0.5
  0
VERTEX
  8
0
 10
220.501
 20
91.7988
 30
0.0
 40
0.5
 41
0.5
  0
VERTEX
  8
0
 10
220.501
 20
91.8018
 30
0.0
 40
0.5
 41
0.5
  0
SEQEND
  8
0
  0
POLYLINE
8
0
 62
     0
 66
     1
 10
0
 20
0
 30
0.0
 70
     1
 40
0.5
 41
0.5
  0
VERTEX
  8
0
 10
250.188
 20
76.6077
 30
0.0
 40
0.5
 41
0.5
  0
VERTEX
  8
0
 10
250.212
 20
76.6467
 30
0.0
 40
0.5
 41
0.5
  0
VERTEX
  8
0
 10
250.26
 20
76.7039
 30
0.0
 40
0.5
 41
0.5
  0
VERTEX
  8
0
 10
250.378
 20
76.7817
 30
0.0
 40
0.5
 41
0.5
  0
VERTEX
  8
0
 10
250.566
 20
76.8176
 30
0.0
 40
0.5
 41
0.5
  0
VERTEX
  8
0
 10
250.621
 20
76.8147
 30
0.0
 40
0.5
 41
0.5
  0
VERTEX
  8
0
 10
250.677
 20
76.8057
 30
0.0
 40
0.5
 41
0.5
  0
VERTEX
  8
0
 10
250.837
 20
76.7322
 30
0.0
 40
0.5
 41
0.5
  0
VERTEX
  8
0
 10
250.968
 20
76.5598
 30
0.0
 40
0.5
 41
0.5
  0
VERTEX
  8
0
 10
250.993
 20
76.5972
 30
0.0
 40
0.5
 41
0.5
  0
VERTEX
  8
0
 10
251.021
 20
76.6348
 30
0.0
 40
0.5
 41
0.5
  0
VERTEX
  8
0
 10
251.177
 20
76.7607
 30
0.0
 40
0.5
 41
0.5
  0
VERTEX
  8
0
 10
251.409
 20
76.8208
 30
0.0
 40
0.5
 41
0.5
  0
VERTEX
  8
0
 10
251.437
 20
76.8208
 30
0.0
 40
0.5
 41
0.5
  0
VERTEX
  8
0
 10
251.463
 20
76.8176
 30
0.0
 40
0.5
 41
0.5
  0
VERTEX
  8
0
 10
251.788
 20
76.6257
 30
0.0
 40
0.5
 41
0.5
  0
VERTEX
  8
0
 10
251.865
 20
76.2026
 30
0.0
 40
0.5
 41
0.5
  0
VERTEX
  8
0
 10
251.865
 20
75.3567
 30
0.0
 40
0.5
 41
0.5
  0
VERTEX
  8
0
 10
251.604
 20
75.3567
 30
0.0
 40
0.5
 41
0.5
  0
VERTEX
  8
0
 10
251.604
 20
76.2058
 30
0.0
 40
0.5
 41
0.5
  0
VERTEX
  8
0
 10
251.545
 20
76.4607
 30
0.0
 40
0.5
 41
0.5
  0
VERTEX
  8
0
 10
251.346
 20
76.5598
 30
0.0
 40
0.5
 41
0.5
  0
VERTEX
  8
0
 10
251.121
 20
76.4773
 30
0.0
 40
0.5
 41
0.5
  0
VERTEX
  8
0
 10
251.037
 20
76.1816
 30
0.0
 40
0.5
 41
0.5
  0
VERTEX
  8
0
 10
251.037
 20
75.3567
 30
0.0
 40
0.5
 41
0.5
  0
VERTEX
  8
0
 10
250.755
 20
75.3567
 30
0.0
 40
0.5
 41
0.5
  0
VERTEX
  8
0
 10
250.755
 20
76.2537
 30
0.0
 40
0.5
 41
0.5
  0
VERTEX
  8
0
 10
250.69
 20
76.4697
 30
0.0
 40
0.5
 41
0.5
  0
VERTEX
  8
0
 10
250.551
 20
76.5537
 30
0.0
 40
0.5
 41
0.5
  0
VERTEX
  8
0
 10
250.522
 20
76.5583
 30
0.0
 40
0.5
 41
0.5
  0
VERTEX
  8
0
 10
250.494
 20
76.5598
 30
0.0
 40
0.5
 41
0.5
  0
VERTEX
  8
0
 10
250.467
 20
76.5598
 30
0.0
 40
0.5
 41
0.5
  0
VERTEX
  8
0
 10
250.44
 20
76.5566
 30
0.0
 40
0.5
 41
0.5
  0
VERTEX
  8
0
 10
250.266
 20
76.4758
 30
0.0
 40
0.5
 41
0.5
  0
VERTEX
  8
0
 10
250.188
 20
76.2026
 30
0.0
 40
0.5
 41
0.5
  0
VERTEX
  8
0
 10
250.188
 20
75.3567
 30
0.0
 40
0.5
 41
0.5
  0
VERTEX
  8
0
 10
249.903
 20
75.3567
 30
0.0
 40
0.5
 41
0.5
  0
VERTEX
  8
0
 10
249.903
 20
76.7517
 30
0.0
 40
0.5
 41
0.5
  0
VERTEX
  8
0
 10
250.188
 20
76.7517
 30
0.0
 40
0.5
 41
0.5
  0
VERTEX
  8
0
 10
250.188
 20
76.6077
 30
0.0
 40
0.5
 41
0.5
  0
SEQEND
  8
0
  0
POLYLINE
8
0
 62
     0
 66
     1
 10
0
 20
0
 30
0.0
 70
     1
 40
0.5
 41
0.5
  0
VERTEX
  8
0
 10
252.568
 20
76.7517
 30
0.0
 40
0.5
 41
0.5
  0
VERTEX
  8
0
 10
252.568
 20
75.3567
 30
0.0
 40
0.5
 41
0.5
  0
VERTEX
  8
0
 10
252.286
 20
75.3567
 30
0.0
 40
0.5
 41
0.5
  0
VERTEX
  8
0
 10
252.286
 20
76.7517
 30
0.0
 40
0.5
 41
0.5
  0
VERTEX
  8
0
 10
252.568
 20
76.7517
 30
0.0
 40
0.5
 41
0.5
  0
SEQEND
  8
0
  0
POLYLINE
8
0
 62
     0
 66
     1
 10
0
 20
0
 30
0.0
 70
     1
 40
0.5
 41
0.5
  0
VERTEX
  8
0
 10
252.427
 20
77.5767
 30
0.0
 40
0.5
 41
0.5
  0
VERTEX
  8
0
 10
252.556
 20
77.5168
 30
0.0
 40
0.5
 41
0.5
  0
VERTEX
  8
0
 10
252.598
 20
77.4087
 30
0.0
 40
0.5
 41
0.5
  0
VERTEX
  8
0
 10
252.598
 20
77.4043
 30
0.0
 40
0.5
 41
0.5
  0
VERTEX
  8
0
 10
252.598
 20
77.3997
 30
0.0
 40
0.5
 41
0.5
  0
VERTEX
  8
0
 10
252.548
 20
77.2769
 30
0.0
 40
0.5
 41
0.5
  0
VERTEX
  8
0
 10
252.427
 20
77.2197
 30
0.0
 40
0.5
 41
0.5
  0
VERTEX
  8
0
 10
252.295
 20
77.2737
 30
0.0
 40
0.5
 41
0.5
  0
VERTEX
  8
0
 10
252.25
 20
77.3938
 30
0.0
 40
0.5
 41
0.5
  0
VERTEX
  8
0
 10
252.292
 20
77.5183
 30
0.0
 40
0.5
 41
0.5
  0
VERTEX
  8
0
 10
252.427
 20
77.5737
 30
0.0
 40
0.5
 41
0.5
  0
VERTEX
  8
0
 10
252.427
 20
77.5767
 30
0.0
 40
0.5
 41
0.5
  0
SEQEND
  8
0
  0
POLYLINE
8
0
 62
     0
 66
     1
 10
0
 20
0
 30
0.0
 70
     1
 40
0.5
 41
0.5
  0
VERTEX
  8
0
 10
253.251
 20
76.7517
 30
0.0
 40
0.5
 41
0.5
  0
VERTEX
  8
0
 10
253.251
 20
76.5627
 30
0.0
 40
0.5
 41
0.5
  0
VERTEX
  8
0
 10
253.335
 20
76.6423
 30
0.0
 40
0.5
 41
0.5
  0
VERTEX
  8
0
 10
253.407
 20
76.7039
 30
0.0
 40
0.5
 41
0.5
  0
VERTEX
  8
0
 10
253.525
 20
76.7622
 30
0.0
 40
0.5
 41
0.5
  0
VERTEX
  8
0
 10
253.698
 20
76.7937
 30
0.0
 40
0.5
 41
0.5
  0
VERTEX
  8
0
 10
253.764
 20
76.7908
 30
0.0
 40
0.5
 41
0.5
  0
VERTEX
  8
0
 10
253.833
 20
76.7788
 30
0.0
 40
0.5
 41
0.5
  0
VERTEX
  8
0
 10
254.082
 20
76.6348
 30
0.0
 40
0.5
 41
0.5
  0
VERTEX
  8
0
 10
254.196
 20
76.2988
 30
0.0
 40
0.5
 41
0.5
  0
VERTEX
  8
0
 10
254.196
 20
75.3567
 30
0.0
 40
0.5
 41
0.5
  0
VERTEX
  8
0
 10
253.911
 20
75.3567
 30
0.0
 40
0.5
 41
0.5
  0
VERTEX
  8
0
 10
253.911
 20
76.3018
 30
0.0
 40
0.5
 41
0.5
  0
VERTEX
  8
0
 10
253.833
 20
76.4727
 30
0.0
 40
0.5
 41
0.5
  0
VERTEX
  8
0
 10
253.659
 20
76.5537
 30
0.0
 40
0.5
 41
0.5
  0
VERTEX
  8
0
 10
253.632
 20
76.5583
 30
0.0
 40
0.5
 41
0.5
  0
VERTEX
  8
0
 10
253.605
 20
76.5598
 30
0.0
 40
0.5
 41
0.5
  0
VERTEX
  8
0
 10
253.6
 20
76.5598
 30
0.0
 40
0.5
 41
0.5
  0
VERTEX
  8
0
 10
253.596
 20
76.5598
 30
0.0
 40
0.5
 41
0.5
  0
VERTEX
  8
0
 10
253.374
 20
76.4607
 30
0.0
 40
0.5
 41
0.5
  0
VERTEX
  8
0
 10
253.272
 20
76.1577
 30
0.0
 40
0.5
 41
0.5
  0
VERTEX
  8
0
 10
253.272
 20
75.3567
 30
0.0
 40
0.5
 41
0.5
  0
VERTEX
  8
0
 10
252.99
 20
75.3567
 30
0.0
 40
0.5
 41
0.5
  0
VERTEX
  8
0
 10
252.99
 20
76.7517
 30
0.0
 40
0.5
 41
0.5
  0
VERTEX
  8
0
 10
253.251
 20
76.7517
 30
0.0
 40
0.5
 41
0.5
  0
SEQEND
  8
0
  0
POLYLINE
8
0
 62
     0
 66
     1
 10
0
 20
0
 30
0.0
 70
     1
 40
0.5
 41
0.5
  0
VERTEX
  8
0
 10
263.908
 20
76.8687
 30
0.0
 40
0.5
 41
0.5
  0
VERTEX
  8
0
 10
264.193
 20
76.8687
 30
0.0
 40
0.5
 41
0.5
  0
VERTEX
  8
0
 10
264.193
 20
76.2537
 30
0.0
 40
0.5
 41
0.5
  0
VERTEX
  8
0
 10
264.829
 20
76.2537
 30
0.0
 40
0.5
 41
0.5
  0
VERTEX
  8
0
 10
264.829
 20
75.9956
 30
0.0
 40
0.5
 41
0.5
  0
VERTEX
  8
0
 10
264.193
 20
75.9956
 30
0.0
 40
0.5
 41
0.5
  0
VERTEX
  8
0
 10
264.193
 20
75.3567
 30
0.0
 40
0.5
 41
0.5
  0
VERTEX
  8
0
 10
263.908
 20
75.3567
 30
0.0
 40
0.5
 41
0.5
  0
VERTEX
  8
0
 10
263.908
 20
75.9956
 30
0.0
 40
0.5
 41
0.5
  0
VERTEX
  8
0
 10
263.293
 20
75.9956
 30
0.0
 40
0.5
 41
0.5
  0
VERTEX
  8
0
 10
263.293
 20
76.2537
 30
0.0
 40
0.5
 41
0.5
  0
VERTEX
  8
0
 10
263.908
 20
76.2537
 30
0.0
 40
0.5
 41
0.5
  0
VERTEX
  8
0
 10
263.908
 20
76.8687
 30
0.0
 40
0.5
 41
0.5
  0
SEQEND
  8
0
  0
POLYLINE
8
0
 62
     0
 66
     1
 10
0
 20
0
 30
0.0
 70
     1
 40
0.5
 41
0.5
  0
VERTEX
  8
0
 10
265.253
 20
77.3635
 30
0.0
 40
0.5
 41
0.5
  0
VERTEX
  8
0
 10
265.418
 20
77.6487
 30
0.0
 40
0.5
 41
0.5
  0
VERTEX
  8
0
 10
265.916
 20
77.6487
 30
0.0
 40
0.5
 41
0.5
  0
VERTEX
  8
0
 10
265.916
 20
75.3567
 30
0.0
 40
0.5
 41
0.5
  0
VERTEX
  8
0
 10
265.631
 20
75.3567
 30
0.0
 40
0.5
 41
0.5
  0
VERTEX
  8
0
 10
265.631
 20
77.3635
 30
0.0
 40
0.5
 41
0.5
  0
VERTEX
  8
0
 10
265.253
 20
77.3635
 30
0.0
 40
0.5
 41
0.5
  0
SEQEND
  8
0
  0
POLYLINE
8
0
 62
     0
 66
     1
 10
0
 20
0
 30
0.0
 70
     1
 40
0.5
 41
0.5
  0
VERTEX
  8
0
 10
267.78
 20
76.6077
 30
0.0
 40
0.5
 41
0.5
  0
VERTEX
  8
0
 10
267.909
 20
76.8101
 30
0.0
 40
0.5
 41
0.5
  0
VERTEX
  8
0
 10
267.948
 20
76.9917
 30
0.0
 40
0.5
 41
0.5
  0
VERTEX
  8
0
 10
267.827
 20
77.2676
 30
0.0
 40
0.5
 41
0.5
  0
VERTEX
  8
0
 10
267.552
 20
77.3845
 30
0.0
 40
0.5
 41
0.5
  0
VERTEX
  8
0
 10
267.536
 20
77.3845
 30
0.0
 40
0.5
 41
0.5
  0
VERTEX
  8
0
 10
267.519
 20
77.3845
 30
0.0
 40
0.5
 41
0.5
  0
VERTEX
  8
0
 10
267.218
 20
77.2766
 30
0.0
 40
0.5
 41
0.5
  0
VERTEX
  8
0
 10
267.09
 20
77.0396
 30
0.0
 40
0.5
 41
0.5
  0
VERTEX
  8
0
 10
267.09
 20
77.0276
 30
0.0
 40
0.5
 41
0.5
  0
VERTEX
  8
0
 10
267.09
 20
77.0156
 30
0.0
 40
0.5
 41
0.5
  0
VERTEX
  8
0
 10
267.09
 20
77.0081
 30
0.0
 40
0.5
 41
0.5
  0
VERTEX
  8
0
 10
267.093
 20
77.0007
 30
0.0
 40
0.5
 41
0.5
  0
VERTEX
  8
0
 10
267.093
 20
76.9917
 30
0.0
 40
0.5
 41
0.5
  0
VERTEX
  8
0
 10
267.093
 20
76.9827
 30
0.0
 40
0.5
 41
0.5
  0
VERTEX
  8
0
 10
266.787
 20
76.9856
 30
0.0
 40
0.5
 41
0.5
  0
VERTEX
  8
0
 10
266.991
 20
77.4478
 30
0.0
 40
0.5
 41
0.5
  0
VERTEX
  8
0
 10
267.495
 20
77.6458
 30
0.0
 40
0.5
 41
0.5
  0
VERTEX
  8
0
 10
267.513
 20
77.6458
 30
0.0
 40
0.5
 41
0.5
  0
VERTEX
  8
0
 10
267.531
 20
77.6458
 30
0.0
 40
0.5
 41
0.5
  0
VERTEX
  8
0
 10
268.062
 20
77.4583
 30
0.0
 40
0.5
 41
0.5
  0
VERTEX
  8
0
 10
268.263
 20
77.0037
 30
0.0
 40
0.5
 41
0.5
  0
VERTEX
  8
0
 10
268.248
 20
76.8643
 30
0.0
 40
0.5
 41
0.5
  0
VERTEX
  8
0
 10
268.2
 20
76.7246
 30
0.0
 40
0.5
 41
0.5
  0
VERTEX
  8
0
 10
268.142
 20
76.6167
 30
0.0
 40
0.5
 41
0.5
  0
VERTEX
  8
0
 10
268.062
 20
76.5117
 30
0.0
 40
0.5
 41
0.5
  0
VERTEX
  8
0
 10
267.306
 20
75.6177
 30
0.0
 40
0.5
 41
0.5
  0
VERTEX
  8
0
 10
268.227
 20
75.6177
 30
0.0
 40
0.5
 41
0.5
  0
VERTEX
  8
0
 10
268.227
 20
75.3567
 30
0.0
 40
0.5
 41
0.5
  0
VERTEX
  8
0
 10
266.763
 20
75.3567
 30
0.0
 40
0.5
 41
0.5
  0
VERTEX
  8
0
 10
267.78
 20
76.6077
 30
0.0
 40
0.5
 41
0.5
  0
SEQEND
  8
0
  0
POLYLINE
8
0
 62
     0
 66
     1
 10
0
 20
0
 30
0.0
 70
     1
 40
0.5
 41
0.5
  0
VERTEX
  8
0
 10
269.833
 20
77.9788
 30
0.0
 40
0.5
 41
0.5
  0
VERTEX
  8
0
 10
269.833
 20
75.3567
 30
0.0
 40
0.5
 41
0.5
  0
VERTEX
  8
0
 10
269.573
 20
75.3567
 30
0.0
 40
0.5
 41
0.5
  0
VERTEX
  8
0
 10
269.573
 20
75.5938
 30
0.0
 40
0.5
 41
0.5
  0
VERTEX
  8
0
 10
269.473
 20
75.4631
 30
0.0
 40
0.5
 41
0.5
  0
VERTEX
  8
0
 10
269.365
 20
75.3777
 30
0.0
 40
0.5
 41
0.5
  0
VERTEX
  8
0
 10
269.221
 20
75.3237
 30
0.0
 40
0.5
 41
0.5
  0
VERTEX
  8
0
 10
269.102
 20
75.3086
 30
0.0
 40
0.5
 41
0.5
  0
VERTEX
  8
0
 10
269.083
 20
75.3086
 30
0.0
 40
0.5
 41
0.5
  0
VERTEX
  8
0
 10
269.065
 20
75.3086
 30
0.0
 40
0.5
 41
0.5
  0
VERTEX
  8
0
 10
268.652
 20
75.4512
 30
0.0
 40
0.5
 41
0.5
  0
VERTEX
  8
0
 10
268.438
 20
75.7737
 30
0.0
 40
0.5
 41
0.5
  0
VERTEX
  8
0
 10
268.404
 20
75.9102
 30
0.0
 40
0.5
 41
0.5
  0
VERTEX
  8
0
 10
268.394
 20
76.0376
 30
0.0
 40
0.5
 41
0.5
  0
VERTEX
  8
0
 10
268.587
 20
76.6062
 30
0.0
 40
0.5
 41
0.5
  0
VERTEX
  8
0
 10
269.014
 20
76.8147
 30
0.0
 40
0.5
 41
0.5
  0
VERTEX
  8
0
 10
269.046
 20
76.8176
 30
0.0
 40
0.5
 41
0.5
  0
VERTEX
  8
0
 10
269.077
 20
76.8176
 30
0.0
 40
0.5
 41
0.5
  0
VERTEX
  8
0
 10
269.153
 20
76.8132
 30
0.0
 40
0.5
 41
0.5
  0
VERTEX
  8
0
 10
269.23
 20
76.7996
 30
0.0
 40
0.5
 41
0.5
  0
VERTEX
  8
0
 10
269.412
 20
76.7188
 30
0.0
 40
0.5
 41
0.5
  0
VERTEX
  8
0
 10
269.552
 20
76.5596
 30
0.0
 40
0.5
 41
0.5
  0
VERTEX
  8
0
 10
269.552
 20
77.9788
 30
0.0
 40
0.5
 41
0.5
  0
VERTEX
  8
0
 10
269.833
 20
77.9788
 30
0.0
 40
0.5
 41
0.5
  0
SEQEND
  8
0
  0
POLYLINE
8
0
 62
     0
 66
     1
 10
0
 20
0
 30
0.0
 70
     1
 40
0.5
 41
0.5
  0
VERTEX
  8
0
 10
269.552
 20
76.0886
 30
0.0
 40
0.5
 41
0.5
  0
VERTEX
  8
0
 10
269.445
 20
76.4487
 30
0.0
 40
0.5
 41
0.5
  0
VERTEX
  8
0
 10
269.125
 20
76.5806
 30
0.0
 40
0.5
 41
0.5
  0
VERTEX
  8
0
 10
268.821
 20
76.4531
 30
0.0
 40
0.5
 41
0.5
  0
VERTEX
  8
0
 10
268.688
 20
76.1726
 30
0.0
 40
0.5
 41
0.5
  0
VERTEX
  8
0
 10
268.678
 20
76.1052
 30
0.0
 40
0.5
 41
0.5
  0
VERTEX
  8
0
 10
268.676
 20
76.0376
 30
0.0
 40
0.5
 41
0.5
  0
VERTEX
  8
0
 10
268.685
 20
75.9431
 30
0.0
 40
0.5
 41
0.5
  0
VERTEX
  8
0
 10
268.715
 20
75.8367
 30
0.0
 40
0.5
 41
0.5
  0
VERTEX
  8
0
 10
268.851
 20
75.634
 30
0.0
 40
0.5
 41
0.5
  0
VERTEX
  8
0
 10
269.125
 20
75.5427
 30
0.0
 40
0.5
 41
0.5
  0
VERTEX
  8
0
 10
269.421
 20
75.6702
 30
0.0
 40
0.5
 41
0.5
  0
VERTEX
  8
0
 10
269.54
 20
75.9507
 30
0.0
 40
0.5
 41
0.5
  0
VERTEX
  8
0
 10
269.549
 20
76.0181
 30
0.0
 40
0.5
 41
0.5
  0
VERTEX
  8
0
 10
269.552
 20
76.0857
 30
0.0
 40
0.5
 41
0.5
  0
VERTEX
  8
0
 10
269.552
 20
76.0886
 30
0.0
 40
0.5
 41
0.5
  0
SEQEND
  8
0
  0
POLYLINE
8
0
 62
     0
 66
     1
 10
0
 20
0
 30
0.0
 70
     1
 40
0.5
 41
0.5
  0
VERTEX
  8
0
 10
270.472
 20
77.6006
 30
0.0
 40
0.5
 41
0.5
  0
VERTEX
  8
0
 10
270.584
 20
77.5977
 30
0.0
 40
0.5
 41
0.5
  0
VERTEX
  8
0
 10
270.703
 20
77.5916
 30
0.0
 40
0.5
 41
0.5
  0
VERTEX
  8
0
 10
271.117
 20
77.4836
 30
0.0
 40
0.5
 41
0.5
  0
VERTEX
  8
0
 10
271.321
 20
77.0786
 30
0.0
 40
0.5
 41
0.5
  0
VERTEX
  8
0
 10
271.25
 20
76.759
 30
0.0
 40
0.5
 41
0.5
  0
VERTEX
  8
0
 10
271.039
 20
76.5806
 30
0.0
 40
0.5
 41
0.5
  0
VERTEX
  8
0
 10
271.072
 20
76.5776
 30
0.0
 40
0.5
 41
0.5
  0
VERTEX
  8
0
 10
271.105
 20
76.5686
 30
0.0
 40
0.5
 41
0.5
  0
VERTEX
  8
0
 10
271.4
 20
76.3677
 30
0.0
 40
0.5
 41
0.5
  0
VERTEX
  8
0
 10
271.534
 20
75.9688
 30
0.0
 40
0.5
 41
0.5
  0
VERTEX
  8
0
 10
271.298
 20
75.5127
 30
0.0
 40
0.5
 41
0.5
  0
VERTEX
  8
0
 10
270.706
 20
75.3567
 30
0.0
 40
0.5
 41
0.5
  0
VERTEX
  8
0
 10
270.187
 20
75.3567
 30
0.0
 40
0.5
 41
0.5
  0
VERTEX
  8
0
 10
270.187
 20
77.6006
 30
0.0
 40
0.5
 41
0.5
  0
VERTEX
  8
0
 10
270.472
 20
77.6006
 30
0.0
 40
0.5
 41
0.5
  0
SEQEND
  8
0
  0
POLYLINE
8
0
 62
     0
 66
     1
 10
0
 20
0
 30
0.0
 70
     1
 40
0.5
 41
0.5
  0
VERTEX
  8
0
 10
270.493
 20
76.4187
 30
0.0
 40
0.5
 41
0.5
  0
VERTEX
  8
0
 10
270.493
 20
75.5938
 30
0.0
 40
0.5
 41
0.5
  0
VERTEX
  8
0
 10
270.58
 20
75.5833
 30
0.0
 40
0.5
 41
0.5
  0
VERTEX
  8
0
 10
270.661
 20
75.5786
 30
0.0
 40
0.5
 41
0.5
  0
VERTEX
  8
0
 10
270.994
 20
75.6431
 30
0.0
 40
0.5
 41
0.5
  0
VERTEX
  8
0
 10
271.171
 20
75.7856
 30
0.0
 40
0.5
 41
0.5
  0
VERTEX
  8
0
 10
271.214
 20
75.8726
 30
0.0
 40
0.5
 41
0.5
  0
VERTEX
  8
0
 10
271.228
 20
75.9446
 30
0.0
 40
0.5
 41
0.5
  0
VERTEX
  8
0
 10
271.228
 20
75.9626
 30
0.0
 40
0.5
 41
0.5
  0
VERTEX
  8
0
 10
271.228
 20
75.9836
 30
0.0
 40
0.5
 41
0.5
  0
VERTEX
  8
0
 10
271.049
 20
76.3137
 30
0.0
 40
0.5
 41
0.5
  0
VERTEX
  8
0
 10
270.493
 20
76.4155
 30
0.0
 40
0.5
 41
0.5
  0
VERTEX
  8
0
 10
270.493
 20
76.4187
 30
0.0
 40
0.5
 41
0.5
  0
SEQEND
  8
0
  0
POLYLINE
8
0
 62
     0
 66
     1
 10
0
 20
0
 30
0.0
 70
     1
 40
0.5
 41
0.5
  0
VERTEX
  8
0
 10
270.493
 20
77.3877
 30
0.0
 40
0.5
 41
0.5
  0
VERTEX
  8
0
 10
270.493
 20
76.6316
 30
0.0
 40
0.5
 41
0.5
  0
VERTEX
  8
0
 10
270.542
 20
76.6257
 30
0.0
 40
0.5
 41
0.5
  0
VERTEX
  8
0
 10
270.592
 20
76.6257
 30
0.0
 40
0.5
 41
0.5
  0
VERTEX
  8
0
 10
270.925
 20
76.7083
 30
0.0
 40
0.5
 41
0.5
  0
VERTEX
  8
0
 10
271.039
 20
76.9827
 30
0.0
 40
0.5
 41
0.5
  0
VERTEX
  8
0
 10
271.039
 20
76.9902
 30
0.0
 40
0.5
 41
0.5
  0
VERTEX
  8
0
 10
271.039
 20
76.9976
 30
0.0
 40
0.5
 41
0.5
  0
VERTEX
  8
0
 10
271.037
 20
77.0652
 30
0.0
 40
0.5
 41
0.5
  0
VERTEX
  8
0
 10
271.027
 20
77.1416
 30
0.0
 40
0.5
 41
0.5
  0
VERTEX
  8
0
 10
270.908
 20
77.3096
 30
0.0
 40
0.5
 41
0.5
  0
VERTEX
  8
0
 10
270.562
 20
77.3845
 30
0.0
 40
0.5
 41
0.5
  0
VERTEX
  8
0
 10
270.529
 20
77.3845
 30
0.0
 40
0.5
 41
0.5
  0
VERTEX
  8
0
 10
270.493
 20
77.3845
 30
0.0
 40
0.5
 41
0.5
  0
VERTEX
  8
0
 10
270.493
 20
77.3877
 30
0.0
 40
0.5
 41
0.5
  0
SEQEND
  8
0
  0
POLYLINE
8
0
 62
     0
 66
     1
 10
0
 20
0
 30
0.0
 70
     1
 40
0.5
 41
0.5
  0
VERTEX
  8
0
 10
256.722
 20
96.6628
 30
0.0
 40
0.5
 41
0.5
  0
VERTEX
  8
0
 10
256.722
 20
96.1909
 30
0.0
 40
0.5
 41
0.5
  0
VERTEX
  8
0
 10
256.488
 20
96.1069
 30
0.0
 40
0.5
 41
0.5
  0
VERTEX
  8
0
 10
256.234
 20
96.0789
 30
0.0
 40
0.5
 41
0.5
  0
VERTEX
  8
0
 10
256.202
 20
96.0789
 30
0.0
 40
0.5
 41
0.5
  0
VERTEX
  8
0
 10
256.17
 20
96.0789
 30
0.0
 40
0.5
 41
0.5
  0
VERTEX
  8
0
 10
255.51
 20
96.3389
 30
0.0
 40
0.5
 41
0.5
  0
VERTEX
  8
0
 10
255.21
 20
97.0669
 30
0.0
 40
0.5
 41
0.5
  0
VERTEX
  8
0
 10
255.516
 20
97.8469
 30
0.0
 40
0.5
 41
0.5
  0
VERTEX
  8
0
 10
256.21
 20
98.103
 30
0.0
 40
0.5
 41
0.5
  0
VERTEX
  8
0
 10
256.486
 20
98.075
 30
0.0
 40
0.5
 41
0.5
  0
VERTEX
  8
0
 10
256.75
 20
97.9829
 30
0.0
 40
0.5
 41
0.5
  0
VERTEX
  8
0
 10
256.75
 20
97.5149
 30
0.0
 40
0.5
 41
0.5
  0
VERTEX
  8
0
 10
256.648
 20
97.6169
 30
0.0
 40
0.5
 41
0.5
  0
VERTEX
  8
0
 10
256.542
 20
97.687
 30
0.0
 40
0.5
 41
0.5
  0
VERTEX
  8
0
 10
256.333
 20
97.7529
 30
0.0
 40
0.5
 41
0.5
  0
VERTEX
  8
0
 10
256.186
 20
97.7629
 30
0.0
 40
0.5
 41
0.5
  0
VERTEX
  8
0
 10
255.729
 20
97.5369
 30
0.0
 40
0.5
 41
0.5
  0
VERTEX
  8
0
 10
255.57
 20
97.0989
 30
0.0
 40
0.5
 41
0.5
  0
VERTEX
  8
0
 10
255.57
 20
97.093
 30
0.0
 40
0.5
 41
0.5
  0
VERTEX
  8
0
 10
255.57
 20
97.0869
 30
0.0
 40
0.5
 41
0.5
  0
VERTEX
  8
0
 10
255.72
 20
96.6409
 30
0.0
 40
0.5
 41
0.5
  0
VERTEX
  8
0
 10
256.158
 20
96.439
 30
0.0
 40
0.5
 41
0.5
  0
VERTEX
  8
0
 10
256.172
 20
96.439
 30
0.0
 40
0.5
 41
0.5
  0
VERTEX
  8
0
 10
256.186
 20
96.439
 30
0.0
 40
0.5
 41
0.5
  0
VERTEX
  8
0
 10
256.356
 20
96.457
 30
0.0
 40
0.5
 41
0.5
  0
VERTEX
  8
0
 10
256.635
 20
96.5869
 30
0.0
 40
0.5
 41
0.5
  0
VERTEX
  8
0
 10
256.68
 20
96.6208
 30
0.0
 40
0.5
 41
0.5
  0
VERTEX
  8
0
 10
256.722
 20
96.6589
 30
0.0
 40
0.5
 41
0.5
  0
VERTEX
  8
0
 10
256.722
 20
96.6628
 30
0.0
 40
0.5
 41
0.5
  0
SEQEND
  8
0
  0
POLYLINE
8
0
 62
     0
 66
     1
 10
0
 20
0
 30
0.0
 70
     1
 40
0.5
 41
0.5
  0
VERTEX
  8
0
 10
257.447
 20
99.623
 30
0.0
 40
0.5
 41
0.5
  0
VERTEX
  8
0
 10
257.447
 20
97.7949
 30
0.0
 40
0.5
 41
0.5
  0
VERTEX
  8
0
 10
257.693
 20
98.021
 30
0.0
 40
0.5
 41
0.5
  0
VERTEX
  8
0
 10
258.011
 20
98.1069
 30
0.0
 40
0.5
 41
0.5
  0
VERTEX
  8
0
 10
258.485
 20
97.959
 30
0.0
 40
0.5
 41
0.5
  0
VERTEX
  8
0
 10
258.675
 20
97.3831
 30
0.0
 40
0.5
 41
0.5
  0
VERTEX
  8
0
 10
258.675
 20
96.1589
 30
0.0
 40
0.5
 41
0.5
  0
VERTEX
  8
0
 10
258.327
 20
96.1589
 30
0.0
 40
0.5
 41
0.5
  0
VERTEX
  8
0
 10
258.327
 20
97.387
 30
0.0
 40
0.5
 41
0.5
  0
VERTEX
  8
0
 10
258.217
 20
97.679
 30
0.0
 40
0.5
 41
0.5
  0
VERTEX
  8
0
 10
257.919
 20
97.7629
 30
0.0
 40
0.5
 41
0.5
  0
VERTEX
  8
0
 10
257.553
 20
97.625
 30
0.0
 40
0.5
 41
0.5
  0
VERTEX
  8
0
 10
257.447
 20
97.2271
 30
0.0
 40
0.5
 41
0.5
  0
VERTEX
  8
0
 10
257.447
 20
96.1589
 30
0.0
 40
0.5
 41
0.5
  0
VERTEX
  8
0
 10
257.067
 20
96.1589
 30
0.0
 40
0.5
 41
0.5
  0
VERTEX
  8
0
 10
257.067
 20
99.623
 30
0.0
 40
0.5
 41
0.5
  0
VERTEX
  8
0
 10
257.447
 20
99.623
 30
0.0
 40
0.5
 41
0.5
  0
SEQEND
  8
0
  0
POLYLINE
8
0
 62
     0
 66
     1
 10
0
 20
0
 30
0.0
 70
     1
 40
0.5
 41
0.5
  0
VERTEX
  8
0
 10
260.062
 20
97.6069
 30
0.0
 40
0.5
 41
0.5
  0
VERTEX
  8
0
 10
260.062
 20
97.291
 30
0.0
 40
0.5
 41
0.5
  0
VERTEX
  8
0
 10
259.177
 20
97.291
 30
0.0
 40
0.5
 41
0.5
  0
VERTEX
  8
0
 10
259.177
 20
97.6069
 30
0.0
 40
0.5
 41
0.5
  0
VERTEX
  8
0
 10
260.062
 20
97.6069
 30
0.0
 40
0.5
 41
0.5
  0
SEQEND
  8
0
  0
POLYLINE
8
0
 62
     0
 66
     1
 10
0
 20
0
 30
0.0
 70
     1
 40
0.5
 41
0.5
  0
VERTEX
  8
0
 10
261.388
 20
97.9229
 30
0.0
 40
0.5
 41
0.5
  0
VERTEX
  8
0
 10
261.812
 20
98.033
 30
0.0
 40
0.5
 41
0.5
  0
VERTEX
  8
0
 10
261.952
 20
98.3589
 30
0.0
 40
0.5
 41
0.5
  0
VERTEX
  8
0
 10
261.956
 20
98.3889
 30
0.0
 40
0.5
 41
0.5
  0
VERTEX
  8
0
 10
261.956
 20
98.4189
 30
0.0
 40
0.5
 41
0.5
  0
VERTEX
  8
0
 10
261.804
 20
98.7849
 30
0.0
 40
0.5
 41
0.5
  0
VERTEX
  8
0
 10
261.464
 20
98.9109
 30
0.0
 40
0.5
 41
0.5
  0
VERTEX
  8
0
 10
261.456
 20
98.9109
 30
0.0
 40
0.5
 41
0.5
  0
VERTEX
  8
0
 10
261.448
 20
98.9109
 30
0.0
 40
0.5
 41
0.5
  0
VERTEX
  8
0
 10
261.148
 20
98.803
 30
0.0
 40
0.5
 41
0.5
  0
VERTEX
  8
0
 10
260.976
 20
98.4871
 30
0.0
 40
0.5
 41
0.5
  0
VERTEX
  8
0
 10
260.6
 20
98.491
 30
0.0
 40
0.5
 41
0.5
  0
VERTEX
  8
0
 10
260.832
 20
98.9949
 30
0.0
 40
0.5
 41
0.5
  0
VERTEX
  8
0
 10
261.488
 20
99.2148
 30
0.0
 40
0.5
 41
0.5
  0
VERTEX
  8
0
 10
261.51
 20
99.2148
 30
0.0
 40
0.5
 41
0.5
  0
VERTEX
  8
0
 10
261.532
 20
99.2148
 30
0.0
 40
0.5
 41
0.5
  0
VERTEX
  8
0
 10
261.554
 20
99.2109
 30
0.0
 40
0.5
 41
0.5
  0
VERTEX
  8
0
 10
261.576
 20
99.2109
 30
0.0
 40
0.5
 41
0.5
  0
VERTEX
  8
0
 10
261.582
 20
99.2109
 30
0.0
 40
0.5
 41
0.5
  0
VERTEX
  8
0
 10
261.588
 20
99.2109
 30
0.0
 40
0.5
 41
0.5
  0
VERTEX
  8
0
 10
262.1
 20
98.979
 30
0.0
 40
0.5
 41
0.5
  0
VERTEX
  8
0
 10
262.332
 20
98.4229
 30
0.0
 40
0.5
 41
0.5
  0
VERTEX
  8
0
 10
262.272
 20
98.063
 30
0.0
 40
0.5
 41
0.5
  0
VERTEX
  8
0
 10
262.064
 20
97.811
 30
0.0
 40
0.5
 41
0.5
  0
VERTEX
  8
0
 10
262.01
 20
97.771
 30
0.0
 40
0.5
 41
0.5
  0
VERTEX
  8
0
 10
261.952
 20
97.731
 30
0.0
 40
0.5
 41
0.5
  0
VERTEX
  8
0
 10
262.292
 20
97.4329
 30
0.0
 40
0.5
 41
0.5
  0
VERTEX
  8
0
 10
262.4
 20
97.031
 30
0.0
 40
0.5
 41
0.5
  0
VERTEX
  8
0
 10
262.4
 20
97.0049
 30
0.0
 40
0.5
 41
0.5
  0
VERTEX
  8
0
 10
262.4
 20
96.9749
 30
0.0
 40
0.5
 41
0.5
  0
VERTEX
  8
0
 10
262.126
 20
96.3689
 30
0.0
 40
0.5
 41
0.5
  0
VERTEX
  8
0
 10
261.452
 20
96.095
 30
0.0
 40
0.5
 41
0.5
  0
VERTEX
  8
0
 10
261.434
 20
96.095
 30
0.0
 40
0.5
 41
0.5
  0
VERTEX
  8
0
 10
261.416
 20
96.095
 30
0.0
 40
0.5
 41
0.5
  0
VERTEX
  8
0
 10
260.758
 20
96.3311
 30
0.0
 40
0.5
 41
0.5
  0
VERTEX
  8
0
 10
260.504
 20
96.8589
 30
0.0
 40
0.5
 41
0.5
  0
VERTEX
  8
0
 10
260.504
 20
96.887
 30
0.0
 40
0.5
 41
0.5
  0
VERTEX
  8
0
 10
260.504
 20
96.9109
 30
0.0
 40
0.5
 41
0.5
  0
VERTEX
  8
0
 10
260.884
 20
96.915
 30
0.0
 40
0.5
 41
0.5
  0
VERTEX
  8
0
 10
261.06
 20
96.541
 30
0.0
 40
0.5
 41
0.5
  0
VERTEX
  8
0
 10
261.448
 20
96.407
 30
0.0
 40
0.5
 41
0.5
  0
VERTEX
  8
0
 10
261.858
 20
96.593
 30
0.0
 40
0.5
 41
0.5
  0
VERTEX
  8
0
 10
262.02
 20
97.0029
 30
0.0
 40
0.5
 41
0.5
  0
VERTEX
  8
0
 10
262.02
 20
97.019
 30
0.0
 40
0.5
 41
0.5
  0
VERTEX
  8
0
 10
262.02
 20
97.0349
 30
0.0
 40
0.5
 41
0.5
  0
VERTEX
  8
0
 10
261.884
 20
97.4309
 30
0.0
 40
0.5
 41
0.5
  0
VERTEX
  8
0
 10
261.452
 20
97.6069
 30
0.0
 40
0.5
 41
0.5
  0
VERTEX
  8
0
 10
261.436
 20
97.6069
 30
0.0
 40
0.5
 41
0.5
  0
VERTEX
  8
0
 10
261.42
 20
97.6069
 30
0.0
 40
0.5
 41
0.5
  0
VERTEX
  8
0
 10
261.404
 20
97.603
 30
0.0
 40
0.5
 41
0.5
  0
VERTEX
  8
0
 10
261.388
 20
97.603
 30
0.0
 40
0.5
 41
0.5
  0
VERTEX
  8
0
 10
261.388
 20
97.9229
 30
0.0
 40
0.5
 41
0.5
  0
SEQEND
  8
0
  0
POLYLINE
8
0
 62
     0
 66
     1
 10
0
 20
0
 30
0.0
 70
     1
 40
0.5
 41
0.5
  0
VERTEX
  8
0
 10
256.387
 20
90.9048
 30
0.0
 40
0.5
 41
0.5
  0
VERTEX
  8
0
 10
256.385
 20
90.9243
 30
0.0
 40
0.5
 41
0.5
  0
VERTEX
  8
0
 10
256.385
 20
90.95
 30
0.0
 40
0.5
 41
0.5
  0
VERTEX
  8
0
 10
256.407
 20
91.1777
 30
0.0
 40
0.5
 41
0.5
  0
VERTEX
  8
0
 10
256.486
 20
91.4778
 30
0.0
 40
0.5
 41
0.5
  0
VERTEX
  8
0
 10
256.729
 20
91.8948
 30
0.0
 40
0.5
 41
0.5
  0
VERTEX
  8
0
 10
257.164
 20
92.0837
 30
0.0
 40
0.5
 41
0.5
  0
VERTEX
  8
0
 10
257.731
 20
91.7673
 30
0.0
 40
0.5
 41
0.5
  0
VERTEX
  8
0
 10
257.962
 20
91.0728
 30
0.0
 40
0.5
 41
0.5
  0
VERTEX
  8
0
 10
257.967
 20
91.0112
 30
0.0
 40
0.5
 41
0.5
  0
VERTEX
  8
0
 10
257.969
 20
90.95
 30
0.0
 40
0.5
 41
0.5
  0
VERTEX
  8
0
 10
257.959
 20
90.7607
 30
0.0
 40
0.5
 41
0.5
  0
VERTEX
  8
0
 10
257.932
 20
90.5598
 30
0.0
 40
0.5
 41
0.5
  0
VERTEX
  8
0
 10
257.698
 20
89.9839
 30
0.0
 40
0.5
 41
0.5
  0
VERTEX
  8
0
 10
257.188
 20
89.7229
 30
0.0
 40
0.5
 41
0.5
  0
VERTEX
  8
0
 10
256.71
 20
89.9224
 30
0.0
 40
0.5
 41
0.5
  0
VERTEX
  8
0
 10
256.469
 20
90.3618
 30
0.0
 40
0.5
 41
0.5
  0
VERTEX
  8
0
 10
256.404
 20
90.6663
 30
0.0
 40
0.5
 41
0.5
  0
VERTEX
  8
0
 10
256.387
 20
90.9019
 30
0.0
 40
0.5
 41
0.5
  0
VERTEX
  8
0
 10
256.387
 20
90.9048
 30
0.0
 40
0.5
 41
0.5
  0
SEQEND
  8
0
  0
POLYLINE
8
0
 62
     0
 66
     1
 10
0
 20
0
 30
0.0
 70
     1
 40
0.5
 41
0.5
  0
VERTEX
  8
0
 10
257.686
 20
90.929
 30
0.0
 40
0.5
 41
0.5
  0
VERTEX
  8
0
 10
257.569
 20
91.5229
 30
0.0
 40
0.5
 41
0.5
  0
VERTEX
  8
0
 10
257.314
 20
91.8137
 30
0.0
 40
0.5
 41
0.5
  0
VERTEX
  8
0
 10
257.262
 20
91.8364
 30
0.0
 40
0.5
 41
0.5
  0
VERTEX
  8
0
 10
257.212
 20
91.8469
 30
0.0
 40
0.5
 41
0.5
  0
VERTEX
  8
0
 10
257.202
 20
91.8484
 30
0.0
 40
0.5
 41
0.5
  0
VERTEX
  8
0
 10
257.191
 20
91.8499
 30
0.0
 40
0.5
 41
0.5
  0
VERTEX
  8
0
 10
257.181
 20
91.8499
 30
0.0
 40
0.5
 41
0.5
  0
VERTEX
  8
0
 10
257.17
 20
91.8499
 30
0.0
 40
0.5
 41
0.5
  0
VERTEX
  8
0
 10
256.872
 20
91.679
 30
0.0
 40
0.5
 41
0.5
  0
VERTEX
  8
0
 10
256.717
 20
91.304
 30
0.0
 40
0.5
 41
0.5
  0
VERTEX
  8
0
 10
256.68
 20
91.0864
 30
0.0
 40
0.5
 41
0.5
  0
VERTEX
  8
0
 10
256.669
 20
90.9019
 30
0.0
 40
0.5
 41
0.5
  0
VERTEX
  8
0
 10
256.681
 20
90.7219
 30
0.0
 40
0.5
 41
0.5
  0
VERTEX
  8
0
 10
256.72
 20
90.5088
 30
0.0
 40
0.5
 41
0.5
  0
VERTEX
  8
0
 10
256.875
 20
90.1458
 30
0.0
 40
0.5
 41
0.5
  0
VERTEX
  8
0
 10
257.164
 20
89.981
 30
0.0
 40
0.5
 41
0.5
  0
VERTEX
  8
0
 10
257.559
 20
90.2583
 30
0.0
 40
0.5
 41
0.5
  0
VERTEX
  8
0
 10
257.686
 20
90.9258
 30
0.0
 40
0.5
 41
0.5
  0
VERTEX
  8
0
 10
257.686
 20
90.929
 30
0.0
 40
0.5
 41
0.5
  0
SEQEND
  8
0
  0
POLYLINE
8
0
 62
     0
 66
     1
 10
0
 20
0
 30
0.0
 70
     1
 40
0.5
 41
0.5
  0
VERTEX
  8
0
 10
259.527
 20
92.3928
 30
0.0
 40
0.5
 41
0.5
  0
VERTEX
  8
0
 10
259.527
 20
89.7708
 30
0.0
 40
0.5
 41
0.5
  0
VERTEX
  8
0
 10
259.266
 20
89.7708
 30
0.0
 40
0.5
 41
0.5
  0
VERTEX
  8
0
 10
259.266
 20
90.0078
 30
0.0
 40
0.5
 41
0.5
  0
VERTEX
  8
0
 10
259.167
 20
89.8774
 30
0.0
 40
0.5
 41
0.5
  0
VERTEX
  8
0
 10
259.059
 20
89.7917
 30
0.0
 40
0.5
 41
0.5
  0
VERTEX
  8
0
 10
258.915
 20
89.7378
 30
0.0
 40
0.5
 41
0.5
  0
VERTEX
  8
0
 10
258.795
 20
89.7229
 30
0.0
 40
0.5
 41
0.5
  0
VERTEX
  8
0
 10
258.777
 20
89.7229
 30
0.0
 40
0.5
 41
0.5
  0
VERTEX
  8
0
 10
258.759
 20
89.7229
 30
0.0
 40
0.5
 41
0.5
  0
VERTEX
  8
0
 10
258.344
 20
89.8652
 30
0.0
 40
0.5
 41
0.5
  0
VERTEX
  8
0
 10
258.132
 20
90.1877
 30
0.0
 40
0.5
 41
0.5
  0
VERTEX
  8
0
 10
258.097
 20
90.3242
 30
0.0
 40
0.5
 41
0.5
  0
VERTEX
  8
0
 10
258.087
 20
90.4519
 30
0.0
 40
0.5
 41
0.5
  0
VERTEX
  8
0
 10
258.28
 20
91.0203
 30
0.0
 40
0.5
 41
0.5
  0
VERTEX
  8
0
 10
258.708
 20
91.2288
 30
0.0
 40
0.5
 41
0.5
  0
VERTEX
  8
0
 10
258.739
 20
91.2319
 30
0.0
 40
0.5
 41
0.5
  0
VERTEX
  8
0
 10
258.771
 20
91.2319
 30
0.0
 40
0.5
 41
0.5
  0
VERTEX
  8
0
 10
258.846
 20
91.2273
 30
0.0
 40
0.5
 41
0.5
  0
VERTEX
  8
0
 10
258.924
 20
91.2139
 30
0.0
 40
0.5
 41
0.5
  0
VERTEX
  8
0
 10
259.105
 20
91.1328
 30
0.0
 40
0.5
 41
0.5
  0
VERTEX
  8
0
 10
259.245
 20
90.9739
 30
0.0
 40
0.5
 41
0.5
  0
VERTEX
  8
0
 10
259.245
 20
92.3928
 30
0.0
 40
0.5
 41
0.5
  0
VERTEX
  8
0
 10
259.527
 20
92.3928
 30
0.0
 40
0.5
 41
0.5
  0
SEQEND
  8
0
  0
POLYLINE
8
0
 62
     0
 66
     1
 10
0
 20
0
 30
0.0
 70
     1
 40
0.5
 41
0.5
  0
VERTEX
  8
0
 10
259.245
 20
90.5029
 30
0.0
 40
0.5
 41
0.5
  0
VERTEX
  8
0
 10
259.138
 20
90.8628
 30
0.0
 40
0.5
 41
0.5
  0
VERTEX
  8
0
 10
258.819
 20
90.9949
 30
0.0
 40
0.5
 41
0.5
  0
VERTEX
  8
0
 10
258.514
 20
90.8674
 30
0.0
 40
0.5
 41
0.5
  0
VERTEX
  8
0
 10
258.381
 20
90.5869
 30
0.0
 40
0.5
 41
0.5
  0
VERTEX
  8
0
 10
258.372
 20
90.5193
 30
0.0
 40
0.5
 41
0.5
  0
VERTEX
  8
0
 10
258.369
 20
90.4519
 30
0.0
 40
0.5
 41
0.5
  0
VERTEX
  8
0
 10
258.378
 20
90.3574
 30
0.0
 40
0.5
 41
0.5
  0
VERTEX
  8
0
 10
258.408
 20
90.2507
 30
0.0
 40
0.5
 41
0.5
  0
VERTEX
  8
0
 10
258.544
 20
90.0483
 30
0.0
 40
0.5
 41
0.5
  0
VERTEX
  8
0
 10
258.819
 20
89.9568
 30
0.0
 40
0.5
 41
0.5
  0
VERTEX
  8
0
 10
259.114
 20
90.0842
 30
0.0
 40
0.5
 41
0.5
  0
VERTEX
  8
0
 10
259.233
 20
90.3647
 30
0.0
 40
0.5
 41
0.5
  0
VERTEX
  8
0
 10
259.242
 20
90.4324
 30
0.0
 40
0.5
 41
0.5
  0
VERTEX
  8
0
 10
259.245
 20
90.4998
 30
0.0
 40
0.5
 41
0.5
  0
VERTEX
  8
0
 10
259.245
 20
90.5029
 30
0.0
 40
0.5
 41
0.5
  0
SEQEND
  8
0
  0
POLYLINE
8
0
 62
     0
 66
     1
 10
0
 20
0
 30
0.0
 70
     1
 40
0.5
 41
0.5
  0
VERTEX
  8
0
 10
260.165
 20
92.0149
 30
0.0
 40
0.5
 41
0.5
  0
VERTEX
  8
0
 10
260.277
 20
92.0117
 30
0.0
 40
0.5
 41
0.5
  0
VERTEX
  8
0
 10
260.396
 20
92.0059
 30
0.0
 40
0.5
 41
0.5
  0
VERTEX
  8
0
 10
260.81
 20
91.8979
 30
0.0
 40
0.5
 41
0.5
  0
VERTEX
  8
0
 10
261.014
 20
91.4929
 30
0.0
 40
0.5
 41
0.5
  0
VERTEX
  8
0
 10
260.943
 20
91.1733
 30
0.0
 40
0.5
 41
0.5
  0
VERTEX
  8
0
 10
260.732
 20
90.9949
 30
0.0
 40
0.5
 41
0.5
  0
VERTEX
  8
0
 10
260.765
 20
90.9919
 30
0.0
 40
0.5
 41
0.5
  0
VERTEX
  8
0
 10
260.798
 20
90.9829
 30
0.0
 40
0.5
 41
0.5
  0
VERTEX
  8
0
 10
261.093
 20
90.7817
 30
0.0
 40
0.5
 41
0.5
  0
VERTEX
  8
0
 10
261.227
 20
90.3828
 30
0.0
 40
0.5
 41
0.5
  0
VERTEX
  8
0
 10
260.991
 20
89.9268
 30
0.0
 40
0.5
 41
0.5
  0
VERTEX
  8
0
 10
260.399
 20
89.7708
 30
0.0
 40
0.5
 41
0.5
  0
VERTEX
  8
0
 10
259.88
 20
89.7708
 30
0.0
 40
0.5
 41
0.5
  0
VERTEX
  8
0
 10
259.88
 20
92.0149
 30
0.0
 40
0.5
 41
0.5
  0
VERTEX
  8
0
 10
260.165
 20
92.0149
 30
0.0
 40
0.5
 41
0.5
  0
SEQEND
  8
0
  0
POLYLINE
8
0
 62
     0
 66
     1
 10
0
 20
0
 30
0.0
 70
     1
 40
0.5
 41
0.5
  0
VERTEX
  8
0
 10
260.186
 20
90.8328
 30
0.0
 40
0.5
 41
0.5
  0
VERTEX
  8
0
 10
260.186
 20
90.0078
 30
0.0
 40
0.5
 41
0.5
  0
VERTEX
  8
0
 10
260.273
 20
89.9973
 30
0.0
 40
0.5
 41
0.5
  0
VERTEX
  8
0
 10
260.354
 20
89.9929
 30
0.0
 40
0.5
 41
0.5
  0
VERTEX
  8
0
 10
260.687
 20
90.0574
 30
0.0
 40
0.5
 41
0.5
  0
VERTEX
  8
0
 10
260.864
 20
90.2
 30
0.0
 40
0.5
 41
0.5
  0
VERTEX
  8
0
 10
260.907
 20
90.2869
 30
0.0
 40
0.5
 41
0.5
  0
VERTEX
  8
0
 10
260.921
 20
90.3589
 30
0.0
 40
0.5
 41
0.5
  0
VERTEX
  8
0
 10
260.921
 20
90.377
 30
0.0
 40
0.5
 41
0.5
  0
VERTEX
  8
0
 10
260.921
 20
90.3979
 30
0.0
 40
0.5
 41
0.5
  0
VERTEX
  8
0
 10
260.742
 20
90.7278
 30
0.0
 40
0.5
 41
0.5
  0
VERTEX
  8
0
 10
260.186
 20
90.8298
 30
0.0
 40
0.5
 41
0.5
  0
VERTEX
  8
0
 10
260.186
 20
90.8328
 30
0.0
 40
0.5
 41
0.5
  0
SEQEND
  8
0
  0
POLYLINE
8
0
 62
     0
 66
     1
 10
0
 20
0
 30
0.0
 70
     1
 40
0.5
 41
0.5
  0
VERTEX
  8
0
 10
260.186
 20
91.8018
 30
0.0
 40
0.5
 41
0.5
  0
VERTEX
  8
0
 10
260.186
 20
91.0459
 30
0.0
 40
0.5
 41
0.5
  0
VERTEX
  8
0
 10
260.235
 20
91.0398
 30
0.0
 40
0.5
 41
0.5
  0
VERTEX
  8
0
 10
260.285
 20
91.0398
 30
0.0
 40
0.5
 41
0.5
  0
VERTEX
  8
0
 10
260.618
 20
91.1223
 30
0.0
 40
0.5
 41
0.5
  0
VERTEX
  8
0
 10
260.732
 20
91.3967
 30
0.0
 40
0.5
 41
0.5
  0
VERTEX
  8
0
 10
260.732
 20
91.4043
 30
0.0
 40
0.5
 41
0.5
  0
VERTEX
  8
0
 10
260.732
 20
91.4119
 30
0.0
 40
0.5
 41
0.5
  0
VERTEX
  8
0
 10
260.73
 20
91.4792
 30
0.0
 40
0.5
 41
0.5
  0
VERTEX
  8
0
 10
260.72
 20
91.5559
 30
0.0
 40
0.5
 41
0.5
  0
VERTEX
  8
0
 10
260.601
 20
91.7239
 30
0.0
 40
0.5
 41
0.5
  0
VERTEX
  8
0
 10
260.255
 20
91.7988
 30
0.0
 40
0.5
 41
0.5
  0
VERTEX
  8
0
 10
260.222
 20
91.7988
 30
0.0
 40
0.5
 41
0.5
  0
VERTEX
  8
0
 10
260.186
 20
91.7988
 30
0.0
 40
0.5
 41
0.5
  0
VERTEX
  8
0
 10
260.186
 20
91.8018
 30
0.0
 40
0.5
 41
0.5
  0
SEQEND
  8
0
  0
POLYLINE
8
0
 62
     0
 66
     1
 10
0
 20
0
 30
0.0
 70
     1
 40
0.5
 41
0.5
  0
VERTEX
  8
0
 10
289.873
 20
76.6077
 30
0.0
 40
0.5
 41
0.5
  0
VERTEX
  8
0
 10
289.897
 20
76.6467
 30
0.0
 40
0.5
 41
0.5
  0
VERTEX
  8
0
 10
289.945
 20
76.7039
 30
0.0
 40
0.5
 41
0.5
  0
VERTEX
  8
0
 10
290.063
 20
76.7817
 30
0.0
 40
0.5
 41
0.5
  0
VERTEX
  8
0
 10
290.251
 20
76.8176
 30
0.0
 40
0.5
 41
0.5
  0
VERTEX
  8
0
 10
290.306
 20
76.8147
 30
0.0
 40
0.5
 41
0.5
  0
VERTEX
  8
0
 10
290.362
 20
76.8057
 30
0.0
 40
0.5
 41
0.5
  0
VERTEX
  8
0
 10
290.522
 20
76.7322
 30
0.0
 40
0.5
 41
0.5
  0
VERTEX
  8
0
 10
290.653
 20
76.5598
 30
0.0
 40
0.5
 41
0.5
  0
VERTEX
  8
0
 10
290.678
 20
76.5972
 30
0.0
 40
0.5
 41
0.5
  0
VERTEX
  8
0
 10
290.707
 20
76.6348
 30
0.0
 40
0.5
 41
0.5
  0
VERTEX
  8
0
 10
290.863
 20
76.7607
 30
0.0
 40
0.5
 41
0.5
  0
VERTEX
  8
0
 10
291.094
 20
76.8208
 30
0.0
 40
0.5
 41
0.5
  0
VERTEX
  8
0
 10
291.122
 20
76.8208
 30
0.0
 40
0.5
 41
0.5
  0
VERTEX
  8
0
 10
291.148
 20
76.8176
 30
0.0
 40
0.5
 41
0.5
  0
VERTEX
  8
0
 10
291.473
 20
76.6257
 30
0.0
 40
0.5
 41
0.5
  0
VERTEX
  8
0
 10
291.55
 20
76.2026
 30
0.0
 40
0.5
 41
0.5
  0
VERTEX
  8
0
 10
291.55
 20
75.3567
 30
0.0
 40
0.5
 41
0.5
  0
VERTEX
  8
0
 10
291.289
 20
75.3567
 30
0.0
 40
0.5
 41
0.5
  0
VERTEX
  8
0
 10
291.289
 20
76.2058
 30
0.0
 40
0.5
 41
0.5
  0
VERTEX
  8
0
 10
291.23
 20
76.4607
 30
0.0
 40
0.5
 41
0.5
  0
VERTEX
  8
0
 10
291.031
 20
76.5598
 30
0.0
 40
0.5
 41
0.5
  0
VERTEX
  8
0
 10
290.806
 20
76.4773
 30
0.0
 40
0.5
 41
0.5
  0
VERTEX
  8
0
 10
290.722
 20
76.1816
 30
0.0
 40
0.5
 41
0.5
  0
VERTEX
  8
0
 10
290.722
 20
75.3567
 30
0.0
 40
0.5
 41
0.5
  0
VERTEX
  8
0
 10
290.44
 20
75.3567
 30
0.0
 40
0.5
 41
0.5
  0
VERTEX
  8
0
 10
290.44
 20
76.2537
 30
0.0
 40
0.5
 41
0.5
  0
VERTEX
  8
0
 10
290.375
 20
76.4697
 30
0.0
 40
0.5
 41
0.5
  0
VERTEX
  8
0
 10
290.236
 20
76.5537
 30
0.0
 40
0.5
 41
0.5
  0
VERTEX
  8
0
 10
290.207
 20
76.5583
 30
0.0
 40
0.5
 41
0.5
  0
VERTEX
  8
0
 10
290.179
 20
76.5598
 30
0.0
 40
0.5
 41
0.5
  0
VERTEX
  8
0
 10
290.152
 20
76.5598
 30
0.0
 40
0.5
 41
0.5
  0
VERTEX
  8
0
 10
290.125
 20
76.5566
 30
0.0
 40
0.5
 41
0.5
  0
VERTEX
  8
0
 10
289.951
 20
76.4758
 30
0.0
 40
0.5
 41
0.5
  0
VERTEX
  8
0
 10
289.873
 20
76.2026
 30
0.0
 40
0.5
 41
0.5
  0
VERTEX
  8
0
 10
289.873
 20
75.3567
 30
0.0
 40
0.5
 41
0.5
  0
VERTEX
  8
0
 10
289.588
 20
75.3567
 30
0.0
 40
0.5
 41
0.5
  0
VERTEX
  8
0
 10
289.588
 20
76.7517
 30
0.0
 40
0.5
 41
0.5
  0
VERTEX
  8
0
 10
289.873
 20
76.7517
 30
0.0
 40
0.5
 41
0.5
  0
VERTEX
  8
0
 10
289.873
 20
76.6077
 30
0.0
 40
0.5
 41
0.5
  0
SEQEND
  8
0
  0
POLYLINE
8
0
 62
     0
 66
     1
 10
0
 20
0
 30
0.0
 70
     1
 40
0.5
 41
0.5
  0
VERTEX
  8
0
 10
292.253
 20
76.7517
 30
0.0
 40
0.5
 41
0.5
  0
VERTEX
  8
0
 10
292.253
 20
75.3567
 30
0.0
 40
0.5
 41
0.5
  0
VERTEX
  8
0
 10
291.971
 20
75.3567
 30
0.0
 40
0.5
 41
0.5
  0
VERTEX
  8
0
 10
291.971
 20
76.7517
 30
0.0
 40
0.5
 41
0.5
  0
VERTEX
  8
0
 10
292.253
 20
76.7517
 30
0.0
 40
0.5
 41
0.5
  0
SEQEND
  8
0
  0
POLYLINE
8
0
 62
     0
 66
     1
 10
0
 20
0
 30
0.0
 70
     1
 40
0.5
 41
0.5
  0
VERTEX
  8
0
 10
292.112
 20
77.5767
 30
0.0
 40
0.5
 41
0.5
  0
VERTEX
  8
0
 10
292.241
 20
77.5168
 30
0.0
 40
0.5
 41
0.5
  0
VERTEX
  8
0
 10
292.283
 20
77.4087
 30
0.0
 40
0.5
 41
0.5
  0
VERTEX
  8
0
 10
292.283
 20
77.4043
 30
0.0
 40
0.5
 41
0.5
  0
VERTEX
  8
0
 10
292.283
 20
77.3997
 30
0.0
 40
0.5
 41
0.5
  0
VERTEX
  8
0
 10
292.233
 20
77.2769
 30
0.0
 40
0.5
 41
0.5
  0
VERTEX
  8
0
 10
292.112
 20
77.2197
 30
0.0
 40
0.5
 41
0.5
  0
VERTEX
  8
0
 10
291.98
 20
77.2737
 30
0.0
 40
0.5
 41
0.5
  0
VERTEX
  8
0
 10
291.935
 20
77.3938
 30
0.0
 40
0.5
 41
0.5
  0
VERTEX
  8
0
 10
291.977
 20
77.5183
 30
0.0
 40
0.5
 41
0.5
  0
VERTEX
  8
0
 10
292.112
 20
77.5737
 30
0.0
 40
0.5
 41
0.5
  0
VERTEX
  8
0
 10
292.112
 20
77.5767
 30
0.0
 40
0.5
 41
0.5
  0
SEQEND
  8
0
  0
POLYLINE
8
0
 62
     0
 66
     1
 10
0
 20
0
 30
0.0
 70
     1
 40
0.5
 41
0.5
  0
VERTEX
  8
0
 10
292.936
 20
76.7517
 30
0.0
 40
0.5
 41
0.5
  0
VERTEX
  8
0
 10
292.936
 20
76.5627
 30
0.0
 40
0.5
 41
0.5
  0
VERTEX
  8
0
 10
293.02
 20
76.6423
 30
0.0
 40
0.5
 41
0.5
  0
VERTEX
  8
0
 10
293.092
 20
76.7039
 30
0.0
 40
0.5
 41
0.5
  0
VERTEX
  8
0
 10
293.21
 20
76.7622
 30
0.0
 40
0.5
 41
0.5
  0
VERTEX
  8
0
 10
293.383
 20
76.7937
 30
0.0
 40
0.5
 41
0.5
  0
VERTEX
  8
0
 10
293.449
 20
76.7908
 30
0.0
 40
0.5
 41
0.5
  0
VERTEX
  8
0
 10
293.518
 20
76.7788
 30
0.0
 40
0.5
 41
0.5
  0
VERTEX
  8
0
 10
293.767
 20
76.6348
 30
0.0
 40
0.5
 41
0.5
  0
VERTEX
  8
0
 10
293.881
 20
76.2988
 30
0.0
 40
0.5
 41
0.5
  0
VERTEX
  8
0
 10
293.881
 20
75.3567
 30
0.0
 40
0.5
 41
0.5
  0
VERTEX
  8
0
 10
293.596
 20
75.3567
 30
0.0
 40
0.5
 41
0.5
  0
VERTEX
  8
0
 10
293.596
 20
76.3018
 30
0.0
 40
0.5
 41
0.5
  0
VERTEX
  8
0
 10
293.518
 20
76.4727
 30
0.0
 40
0.5
 41
0.5
  0
VERTEX
  8
0
 10
293.344
 20
76.5537
 30
0.0
 40
0.5
 41
0.5
  0
VERTEX
  8
0
 10
293.317
 20
76.5583
 30
0.0
 40
0.5
 41
0.5
  0
VERTEX
  8
0
 10
293.29
 20
76.5598
 30
0.0
 40
0.5
 41
0.5
  0
VERTEX
  8
0
 10
293.285
 20
76.5598
 30
0.0
 40
0.5
 41
0.5
  0
VERTEX
  8
0
 10
293.281
 20
76.5598
 30
0.0
 40
0.5
 41
0.5
  0
VERTEX
  8
0
 10
293.059
 20
76.4607
 30
0.0
 40
0.5
 41
0.5
  0
VERTEX
  8
0
 10
292.957
 20
76.1577
 30
0.0
 40
0.5
 41
0.5
  0
VERTEX
  8
0
 10
292.957
 20
75.3567
 30
0.0
 40
0.5
 41
0.5
  0
VERTEX
  8
0
 10
292.675
 20
75.3567
 30
0.0
 40
0.5
 41
0.5
  0
VERTEX
  8
0
 10
292.675
 20
76.7517
 30
0.0
 40
0.5
 41
0.5
  0
VERTEX
  8
0
 10
292.936
 20
76.7517
 30
0.0
 40
0.5
 41
0.5
  0
SEQEND
  8
0
  0
POLYLINE
8
0
 62
     0
 66
     1
 10
0
 20
0
 30
0.0
 70
     1
 40
0.5
 41
0.5
  0
VERTEX
  8
0
 10
303.593
 20
76.8687
 30
0.0
 40
0.5
 41
0.5
  0
VERTEX
  8
0
 10
303.878
 20
76.8687
 30
0.0
 40
0.5
 41
0.5
  0
VERTEX
  8
0
 10
303.878
 20
76.2537
 30
0.0
 40
0.5
 41
0.5
  0
VERTEX
  8
0
 10
304.514
 20
76.2537
 30
0.0
 40
0.5
 41
0.5
  0
VERTEX
  8
0
 10
304.514
 20
75.9956
 30
0.0
 40
0.5
 41
0.5
  0
VERTEX
  8
0
 10
303.878
 20
75.9956
 30
0.0
 40
0.5
 41
0.5
  0
VERTEX
  8
0
 10
303.878
 20
75.3567
 30
0.0
 40
0.5
 41
0.5
  0
VERTEX
  8
0
 10
303.593
 20
75.3567
 30
0.0
 40
0.5
 41
0.5
  0
VERTEX
  8
0
 10
303.593
 20
75.9956
 30
0.0
 40
0.5
 41
0.5
  0
VERTEX
  8
0
 10
302.978
 20
75.9956
 30
0.0
 40
0.5
 41
0.5
  0
VERTEX
  8
0
 10
302.978
 20
76.2537
 30
0.0
 40
0.5
 41
0.5
  0
VERTEX
  8
0
 10
303.593
 20
76.2537
 30
0.0
 40
0.5
 41
0.5
  0
VERTEX
  8
0
 10
303.593
 20
76.8687
 30
0.0
 40
0.5
 41
0.5
  0
SEQEND
  8
0
  0
POLYLINE
8
0
 62
     0
 66
     1
 10
0
 20
0
 30
0.0
 70
     1
 40
0.5
 41
0.5
  0
VERTEX
  8
0
 10
304.938
 20
77.3635
 30
0.0
 40
0.5
 41
0.5
  0
VERTEX
  8
0
 10
305.103
 20
77.6487
 30
0.0
 40
0.5
 41
0.5
  0
VERTEX
  8
0
 10
305.601
 20
77.6487
 30
0.0
 40
0.5
 41
0.5
  0
VERTEX
  8
0
 10
305.601
 20
75.3567
 30
0.0
 40
0.5
 41
0.5
  0
VERTEX
  8
0
 10
305.316
 20
75.3567
 30
0.0
 40
0.5
 41
0.5
  0
VERTEX
  8
0
 10
305.316
 20
77.3635
 30
0.0
 40
0.5
 41
0.5
  0
VERTEX
  8
0
 10
304.938
 20
77.3635
 30
0.0
 40
0.5
 41
0.5
  0
SEQEND
  8
0
  0
POLYLINE
8
0
 62
     0
 66
     1
 10
0
 20
0
 30
0.0
 70
     1
 40
0.5
 41
0.5
  0
VERTEX
  8
0
 10
307.465
 20
76.6077
 30
0.0
 40
0.5
 41
0.5
  0
VERTEX
  8
0
 10
307.594
 20
76.8101
 30
0.0
 40
0.5
 41
0.5
  0
VERTEX
  8
0
 10
307.633
 20
76.9917
 30
0.0
 40
0.5
 41
0.5
  0
VERTEX
  8
0
 10
307.512
 20
77.2676
 30
0.0
 40
0.5
 41
0.5
  0
VERTEX
  8
0
 10
307.237
 20
77.3845
 30
0.0
 40
0.5
 41
0.5
  0
VERTEX
  8
0
 10
307.221
 20
77.3845
 30
0.0
 40
0.5
 41
0.5
  0
VERTEX
  8
0
 10
307.204
 20
77.3845
 30
0.0
 40
0.5
 41
0.5
  0
VERTEX
  8
0
 10
306.903
 20
77.2766
 30
0.0
 40
0.5
 41
0.5
  0
VERTEX
  8
0
 10
306.775
 20
77.0396
 30
0.0
 40
0.5
 41
0.5
  0
VERTEX
  8
0
 10
306.775
 20
77.0276
 30
0.0
 40
0.5
 41
0.5
  0
VERTEX
  8
0
 10
306.775
 20
77.0156
 30
0.0
 40
0.5
 41
0.5
  0
VERTEX
  8
0
 10
306.775
 20
77.0081
 30
0.0
 40
0.5
 41
0.5
  0
VERTEX
  8
0
 10
306.778
 20
77.0007
 30
0.0
 40
0.5
 41
0.5
  0
VERTEX
  8
0
 10
306.778
 20
76.9917
 30
0.0
 40
0.5
 41
0.5
  0
VERTEX
  8
0
 10
306.778
 20
76.9827
 30
0.0
 40
0.5
 41
0.5
  0
VERTEX
  8
0
 10
306.472
 20
76.9856
 30
0.0
 40
0.5
 41
0.5
  0
VERTEX
  8
0
 10
306.676
 20
77.4478
 30
0.0
 40
0.5
 41
0.5
  0
VERTEX
  8
0
 10
307.18
 20
77.6458
 30
0.0
 40
0.5
 41
0.5
  0
VERTEX
  8
0
 10
307.198
 20
77.6458
 30
0.0
 40
0.5
 41
0.5
  0
VERTEX
  8
0
 10
307.216
 20
77.6458
 30
0.0
 40
0.5
 41
0.5
  0
VERTEX
  8
0
 10
307.747
 20
77.4583
 30
0.0
 40
0.5
 41
0.5
  0
VERTEX
  8
0
 10
307.948
 20
77.0037
 30
0.0
 40
0.5
 41
0.5
  0
VERTEX
  8
0
 10
307.933
 20
76.8643
 30
0.0
 40
0.5
 41
0.5
  0
VERTEX
  8
0
 10
307.885
 20
76.7246
 30
0.0
 40
0.5
 41
0.5
  0
VERTEX
  8
0
 10
307.827
 20
76.6167
 30
0.0
 40
0.5
 41
0.5
  0
VERTEX
  8
0
 10
307.747
 20
76.5117
 30
0.0
 40
0.5
 41
0.5
  0
VERTEX
  8
0
 10
306.991
 20
75.6177
 30
0.0
 40
0.5
 41
0.5
  0
VERTEX
  8
0
 10
307.912
 20
75.6177
 30
0.0
 40
0.5
 41
0.5
  0
VERTEX
  8
0
 10
307.912
 20
75.3567
 30
0.0
 40
0.5
 41
0.5
  0
VERTEX
  8
0
 10
306.448
 20
75.3567
 30
0.0
 40
0.5
 41
0.5
  0
VERTEX
  8
0
 10
307.465
 20
76.6077
 30
0.0
 40
0.5
 41
0.5
  0
SEQEND
  8
0
  0
POLYLINE
8
0
 62
     0
 66
     1
 10
0
 20
0
 30
0.0
 70
     1
 40
0.5
 41
0.5
  0
VERTEX
  8
0
 10
309.519
 20
77.9788
 30
0.0
 40
0.5
 41
0.5
  0
VERTEX
  8
0
 10
309.519
 20
75.3567
 30
0.0
 40
0.5
 41
0.5
  0
VERTEX
  8
0
 10
309.258
 20
75.3567
 30
0.0
 40
0.5
 41
0.5
  0
VERTEX
  8
0
 10
309.258
 20
75.5938
 30
0.0
 40
0.5
 41
0.5
  0
VERTEX
  8
0
 10
309.158
 20
75.4631
 30
0.0
 40
0.5
 41
0.5
  0
VERTEX
  8
0
 10
309.051
 20
75.3777
 30
0.0
 40
0.5
 41
0.5
  0
VERTEX
  8
0
 10
308.906
 20
75.3237
 30
0.0
 40
0.5
 41
0.5
  0
VERTEX
  8
0
 10
308.787
 20
75.3086
 30
0.0
 40
0.5
 41
0.5
  0
VERTEX
  8
0
 10
308.769
 20
75.3086
 30
0.0
 40
0.5
 41
0.5
  0
VERTEX
  8
0
 10
308.75
 20
75.3086
 30
0.0
 40
0.5
 41
0.5
  0
VERTEX
  8
0
 10
308.336
 20
75.4512
 30
0.0
 40
0.5
 41
0.5
  0
VERTEX
  8
0
 10
308.124
 20
75.7737
 30
0.0
 40
0.5
 41
0.5
  0
VERTEX
  8
0
 10
308.089
 20
75.9102
 30
0.0
 40
0.5
 41
0.5
  0
VERTEX
  8
0
 10
308.079
 20
76.0376
 30
0.0
 40
0.5
 41
0.5
  0
VERTEX
  8
0
 10
308.272
 20
76.6062
 30
0.0
 40
0.5
 41
0.5
  0
VERTEX
  8
0
 10
308.699
 20
76.8147
 30
0.0
 40
0.5
 41
0.5
  0
VERTEX
  8
0
 10
308.731
 20
76.8176
 30
0.0
 40
0.5
 41
0.5
  0
VERTEX
  8
0
 10
308.762
 20
76.8176
 30
0.0
 40
0.5
 41
0.5
  0
VERTEX
  8
0
 10
308.837
 20
76.8132
 30
0.0
 40
0.5
 41
0.5
  0
VERTEX
  8
0
 10
308.916
 20
76.7996
 30
0.0
 40
0.5
 41
0.5
  0
VERTEX
  8
0
 10
309.097
 20
76.7188
 30
0.0
 40
0.5
 41
0.5
  0
VERTEX
  8
0
 10
309.237
 20
76.5596
 30
0.0
 40
0.5
 41
0.5
  0
VERTEX
  8
0
 10
309.237
 20
77.9788
 30
0.0
 40
0.5
 41
0.5
  0
VERTEX
  8
0
 10
309.519
 20
77.9788
 30
0.0
 40
0.5
 41
0.5
  0
SEQEND
  8
0
  0
POLYLINE
8
0
 62
     0
 66
     1
 10
0
 20
0
 30
0.0
 70
     1
 40
0.5
 41
0.5
  0
VERTEX
  8
0
 10
309.237
 20
76.0886
 30
0.0
 40
0.5
 41
0.5
  0
VERTEX
  8
0
 10
309.13
 20
76.4487
 30
0.0
 40
0.5
 41
0.5
  0
VERTEX
  8
0
 10
308.811
 20
76.5806
 30
0.0
 40
0.5
 41
0.5
  0
VERTEX
  8
0
 10
308.506
 20
76.4531
 30
0.0
 40
0.5
 41
0.5
  0
VERTEX
  8
0
 10
308.373
 20
76.1726
 30
0.0
 40
0.5
 41
0.5
  0
VERTEX
  8
0
 10
308.364
 20
76.1052
 30
0.0
 40
0.5
 41
0.5
  0
VERTEX
  8
0
 10
308.361
 20
76.0376
 30
0.0
 40
0.5
 41
0.5
  0
VERTEX
  8
0
 10
308.369
 20
75.9431
 30
0.0
 40
0.5
 41
0.5
  0
VERTEX
  8
0
 10
308.399
 20
75.8367
 30
0.0
 40
0.5
 41
0.5
  0
VERTEX
  8
0
 10
308.536
 20
75.634
 30
0.0
 40
0.5
 41
0.5
  0
VERTEX
  8
0
 10
308.811
 20
75.5427
 30
0.0
 40
0.5
 41
0.5
  0
VERTEX
  8
0
 10
309.106
 20
75.6702
 30
0.0
 40
0.5
 41
0.5
  0
VERTEX
  8
0
 10
309.225
 20
75.9507
 30
0.0
 40
0.5
 41
0.5
  0
VERTEX
  8
0
 10
309.233
 20
76.0181
 30
0.0
 40
0.5
 41
0.5
  0
VERTEX
  8
0
 10
309.237
 20
76.0857
 30
0.0
 40
0.5
 41
0.5
  0
VERTEX
  8
0
 10
309.237
 20
76.0886
 30
0.0
 40
0.5
 41
0.5
  0
SEQEND
  8
0
  0
POLYLINE
8
0
 62
     0
 66
     1
 10
0
 20
0
 30
0.0
 70
     1
 40
0.5
 41
0.5
  0
VERTEX
  8
0
 10
310.157
 20
77.6006
 30
0.0
 40
0.5
 41
0.5
  0
VERTEX
  8
0
 10
310.269
 20
77.5977
 30
0.0
 40
0.5
 41
0.5
  0
VERTEX
  8
0
 10
310.388
 20
77.5916
 30
0.0
 40
0.5
 41
0.5
  0
VERTEX
  8
0
 10
310.802
 20
77.4836
 30
0.0
 40
0.5
 41
0.5
  0
VERTEX
  8
0
 10
311.006
 20
77.0786
 30
0.0
 40
0.5
 41
0.5
  0
VERTEX
  8
0
 10
310.935
 20
76.759
 30
0.0
 40
0.5
 41
0.5
  0
VERTEX
  8
0
 10
310.724
 20
76.5806
 30
0.0
 40
0.5
 41
0.5
  0
VERTEX
  8
0
 10
310.757
 20
76.5776
 30
0.0
 40
0.5
 41
0.5
  0
VERTEX
  8
0
 10
310.79
 20
76.5686
 30
0.0
 40
0.5
 41
0.5
  0
VERTEX
  8
0
 10
311.085
 20
76.3677
 30
0.0
 40
0.5
 41
0.5
  0
VERTEX
  8
0
 10
311.219
 20
75.9688
 30
0.0
 40
0.5
 41
0.5
  0
VERTEX
  8
0
 10
310.983
 20
75.5127
 30
0.0
 40
0.5
 41
0.5
  0
VERTEX
  8
0
 10
310.391
 20
75.3567
 30
0.0
 40
0.5
 41
0.5
  0
VERTEX
  8
0
 10
309.872
 20
75.3567
 30
0.0
 40
0.5
 41
0.5
  0
VERTEX
  8
0
 10
309.872
 20
77.6006
 30
0.0
 40
0.5
 41
0.5
  0
VERTEX
  8
0
 10
310.157
 20
77.6006
 30
0.0
 40
0.5
 41
0.5
  0
SEQEND
  8
0
  0
POLYLINE
8
0
 62
     0
 66
     1
 10
0
 20
0
 30
0.0
 70
     1
 40
0.5
 41
0.5
  0
VERTEX
  8
0
 10
310.178
 20
76.4187
 30
0.0
 40
0.5
 41
0.5
  0
VERTEX
  8
0
 10
310.178
 20
75.5938
 30
0.0
 40
0.5
 41
0.5
  0
VERTEX
  8
0
 10
310.265
 20
75.5833
 30
0.0
 40
0.5
 41
0.5
  0
VERTEX
  8
0
 10
310.346
 20
75.5786
 30
0.0
 40
0.5
 41
0.5
  0
VERTEX
  8
0
 10
310.679
 20
75.6431
 30
0.0
 40
0.5
 41
0.5
  0
VERTEX
  8
0
 10
310.856
 20
75.7856
 30
0.0
 40
0.5
 41
0.5
  0
VERTEX
  8
0
 10
310.899
 20
75.8726
 30
0.0
 40
0.5
 41
0.5
  0
VERTEX
  8
0
 10
310.913
 20
75.9446
 30
0.0
 40
0.5
 41
0.5
  0
VERTEX
  8
0
 10
310.913
 20
75.9626
 30
0.0
 40
0.5
 41
0.5
  0
VERTEX
  8
0
 10
310.913
 20
75.9836
 30
0.0
 40
0.5
 41
0.5
  0
VERTEX
  8
0
 10
310.734
 20
76.3137
 30
0.0
 40
0.5
 41
0.5
  0
VERTEX
  8
0
 10
310.178
 20
76.4155
 30
0.0
 40
0.5
 41
0.5
  0
VERTEX
  8
0
 10
310.178
 20
76.4187
 30
0.0
 40
0.5
 41
0.5
  0
SEQEND
  8
0
  0
POLYLINE
8
0
 62
     0
 66
     1
 10
0
 20
0
 30
0.0
 70
     1
 40
0.5
 41
0.5
  0
VERTEX
  8
0
 10
310.178
 20
77.3877
 30
0.0
 40
0.5
 41
0.5
  0
VERTEX
  8
0
 10
310.178
 20
76.6316
 30
0.0
 40
0.5
 41
0.5
  0
VERTEX
  8
0
 10
310.227
 20
76.6257
 30
0.0
 40
0.5
 41
0.5
  0
VERTEX
  8
0
 10
310.277
 20
76.6257
 30
0.0
 40
0.5
 41
0.5
  0
VERTEX
  8
0
 10
310.61
 20
76.7083
 30
0.0
 40
0.5
 41
0.5
  0
VERTEX
  8
0
 10
310.724
 20
76.9827
 30
0.0
 40
0.5
 41
0.5
  0
VERTEX
  8
0
 10
310.724
 20
76.9902
 30
0.0
 40
0.5
 41
0.5
  0
VERTEX
  8
0
 10
310.724
 20
76.9976
 30
0.0
 40
0.5
 41
0.5
  0
VERTEX
  8
0
 10
310.722
 20
77.0652
 30
0.0
 40
0.5
 41
0.5
  0
VERTEX
  8
0
 10
310.712
 20
77.1416
 30
0.0
 40
0.5
 41
0.5
  0
VERTEX
  8
0
 10
310.593
 20
77.3096
 30
0.0
 40
0.5
 41
0.5
  0
VERTEX
  8
0
 10
310.247
 20
77.3845
 30
0.0
 40
0.5
 41
0.5
  0
VERTEX
  8
0
 10
310.214
 20
77.3845
 30
0.0
 40
0.5
 41
0.5
  0
VERTEX
  8
0
 10
310.178
 20
77.3845
 30
0.0
 40
0.5
 41
0.5
  0
VERTEX
  8
0
 10
310.178
 20
77.3877
 30
0.0
 40
0.5
 41
0.5
  0
SEQEND
  8
0
  0
POLYLINE
8
0
 62
     0
 66
     1
 10
0
 20
0
 30
0.0
 70
     1
 40
0.5
 41
0.5
  0
VERTEX
  8
0
 10
296.407
 20
96.6628
 30
0.0
 40
0.5
 41
0.5
  0
VERTEX
  8
0
 10
296.407
 20
96.1909
 30
0.0
 40
0.5
 41
0.5
  0
VERTEX
  8
0
 10
296.173
 20
96.1069
 30
0.0
 40
0.5
 41
0.5
  0
VERTEX
  8
0
 10
295.919
 20
96.0789
 30
0.0
 40
0.5
 41
0.5
  0
VERTEX
  8
0
 10
295.887
 20
96.0789
 30
0.0
 40
0.5
 41
0.5
  0
VERTEX
  8
0
 10
295.855
 20
96.0789
 30
0.0
 40
0.5
 41
0.5
  0
VERTEX
  8
0
 10
295.195
 20
96.3389
 30
0.0
 40
0.5
 41
0.5
  0
VERTEX
  8
0
 10
294.896
 20
97.0669
 30
0.0
 40
0.5
 41
0.5
  0
VERTEX
  8
0
 10
295.201
 20
97.8469
 30
0.0
 40
0.5
 41
0.5
  0
VERTEX
  8
0
 10
295.896
 20
98.103
 30
0.0
 40
0.5
 41
0.5
  0
VERTEX
  8
0
 10
296.171
 20
98.075
 30
0.0
 40
0.5
 41
0.5
  0
VERTEX
  8
0
 10
296.435
 20
97.9829
 30
0.0
 40
0.5
 41
0.5
  0
VERTEX
  8
0
 10
296.435
 20
97.5149
 30
0.0
 40
0.5
 41
0.5
  0
VERTEX
  8
0
 10
296.333
 20
97.6169
 30
0.0
 40
0.5
 41
0.5
  0
VERTEX
  8
0
 10
296.227
 20
97.687
 30
0.0
 40
0.5
 41
0.5
  0
VERTEX
  8
0
 10
296.017
 20
97.7529
 30
0.0
 40
0.5
 41
0.5
  0
VERTEX
  8
0
 10
295.871
 20
97.7629
 30
0.0
 40
0.5
 41
0.5
  0
VERTEX
  8
0
 10
295.413
 20
97.5369
 30
0.0
 40
0.5
 41
0.5
  0
VERTEX
  8
0
 10
295.255
 20
97.0989
 30
0.0
 40
0.5
 41
0.5
  0
VERTEX
  8
0
 10
295.255
 20
97.093
 30
0.0
 40
0.5
 41
0.5
  0
VERTEX
  8
0
 10
295.255
 20
97.0869
 30
0.0
 40
0.5
 41
0.5
  0
VERTEX
  8
0
 10
295.406
 20
96.6409
 30
0.0
 40
0.5
 41
0.5
  0
VERTEX
  8
0
 10
295.844
 20
96.439
 30
0.0
 40
0.5
 41
0.5
  0
VERTEX
  8
0
 10
295.857
 20
96.439
 30
0.0
 40
0.5
 41
0.5
  0
VERTEX
  8
0
 10
295.871
 20
96.439
 30
0.0
 40
0.5
 41
0.5
  0
VERTEX
  8
0
 10
296.042
 20
96.457
 30
0.0
 40
0.5
 41
0.5
  0
VERTEX
  8
0
 10
296.319
 20
96.5869
 30
0.0
 40
0.5
 41
0.5
  0
VERTEX
  8
0
 10
296.365
 20
96.6208
 30
0.0
 40
0.5
 41
0.5
  0
VERTEX
  8
0
 10
296.407
 20
96.6589
 30
0.0
 40
0.5
 41
0.5
  0
VERTEX
  8
0
 10
296.407
 20
96.6628
 30
0.0
 40
0.5
 41
0.5
  0
SEQEND
  8
0
  0
POLYLINE
8
0
 62
     0
 66
     1
 10
0
 20
0
 30
0.0
 70
     1
 40
0.5
 41
0.5
  0
VERTEX
  8
0
 10
297.132
 20
99.623
 30
0.0
 40
0.5
 41
0.5
  0
VERTEX
  8
0
 10
297.132
 20
97.7949
 30
0.0
 40
0.5
 41
0.5
  0
VERTEX
  8
0
 10
297.378
 20
98.021
 30
0.0
 40
0.5
 41
0.5
  0
VERTEX
  8
0
 10
297.696
 20
98.1069
 30
0.0
 40
0.5
 41
0.5
  0
VERTEX
  8
0
 10
298.17
 20
97.959
 30
0.0
 40
0.5
 41
0.5
  0
VERTEX
  8
0
 10
298.36
 20
97.3831
 30
0.0
 40
0.5
 41
0.5
  0
VERTEX
  8
0
 10
298.36
 20
96.1589
 30
0.0
 40
0.5
 41
0.5
  0
VERTEX
  8
0
 10
298.012
 20
96.1589
 30
0.0
 40
0.5
 41
0.5
  0
VERTEX
  8
0
 10
298.012
 20
97.387
 30
0.0
 40
0.5
 41
0.5
  0
VERTEX
  8
0
 10
297.902
 20
97.679
 30
0.0
 40
0.5
 41
0.5
  0
VERTEX
  8
0
 10
297.604
 20
97.7629
 30
0.0
 40
0.5
 41
0.5
  0
VERTEX
  8
0
 10
297.238
 20
97.625
 30
0.0
 40
0.5
 41
0.5
  0
VERTEX
  8
0
 10
297.132
 20
97.2271
 30
0.0
 40
0.5
 41
0.5
  0
VERTEX
  8
0
 10
297.132
 20
96.1589
 30
0.0
 40
0.5
 41
0.5
  0
VERTEX
  8
0
 10
296.752
 20
96.1589
 30
0.0
 40
0.5
 41
0.5
  0
VERTEX
  8
0
 10
296.752
 20
99.623
 30
0.0
 40
0.5
 41
0.5
  0
VERTEX
  8
0
 10
297.132
 20
99.623
 30
0.0
 40
0.5
 41
0.5
  0
SEQEND
  8
0
  0
POLYLINE
8
0
 62
     0
 66
     1
 10
0
 20
0
 30
0.0
 70
     1
 40
0.5
 41
0.5
  0
VERTEX
  8
0
 10
299.747
 20
97.6069
 30
0.0
 40
0.5
 41
0.5
  0
VERTEX
  8
0
 10
299.747
 20
97.291
 30
0.0
 40
0.5
 41
0.5
  0
VERTEX
  8
0
 10
298.863
 20
97.291
 30
0.0
 40
0.5
 41
0.5
  0
VERTEX
  8
0
 10
298.863
 20
97.6069
 30
0.0
 40
0.5
 41
0.5
  0
VERTEX
  8
0
 10
299.747
 20
97.6069
 30
0.0
 40
0.5
 41
0.5
  0
SEQEND
  8
0
  0
POLYLINE
8
0
 62
     0
 66
     1
 10
0
 20
0
 30
0.0
 70
     1
 40
0.5
 41
0.5
  0
VERTEX
  8
0
 10
301.857
 20
96.915
 30
0.0
 40
0.5
 41
0.5
  0
VERTEX
  8
0
 10
302.205
 20
96.915
 30
0.0
 40
0.5
 41
0.5
  0
VERTEX
  8
0
 10
302.205
 20
96.5989
 30
0.0
 40
0.5
 41
0.5
  0
VERTEX
  8
0
 10
301.857
 20
96.5989
 30
0.0
 40
0.5
 41
0.5
  0
VERTEX
  8
0
 10
301.857
 20
96.1589
 30
0.0
 40
0.5
 41
0.5
  0
VERTEX
  8
0
 10
301.481
 20
96.1589
 30
0.0
 40
0.5
 41
0.5
  0
VERTEX
  8
0
 10
301.481
 20
96.5989
 30
0.0
 40
0.5
 41
0.5
  0
VERTEX
  8
0
 10
300.001
 20
96.5989
 30
0.0
 40
0.5
 41
0.5
  0
VERTEX
  8
0
 10
301.857
 20
99.3069
 30
0.0
 40
0.5
 41
0.5
  0
VERTEX
  8
0
 10
301.857
 20
96.915
 30
0.0
 40
0.5
 41
0.5
  0
SEQEND
  8
0
  0
POLYLINE
8
0
 62
     0
 66
     1
 10
0
 20
0
 30
0.0
 70
     1
 40
0.5
 41
0.5
  0
VERTEX
  8
0
 10
300.629
 20
96.915
 30
0.0
 40
0.5
 41
0.5
  0
VERTEX
  8
0
 10
301.481
 20
96.915
 30
0.0
 40
0.5
 41
0.5
  0
VERTEX
  8
0
 10
301.481
 20
98.207
 30
0.0
 40
0.5
 41
0.5
  0
VERTEX
  8
0
 10
300.629
 20
96.915
 30
0.0
 40
0.5
 41
0.5
  0
SEQEND
  8
0
  0
POLYLINE
8
0
 62
     0
 66
     1
 10
0
 20
0
 30
0.0
 70
     1
 40
0.5
 41
0.5
  0
VERTEX
  8
0
 10
296.073
 20
90.9048
 30
0.0
 40
0.5
 41
0.5
  0
VERTEX
  8
0
 10
296.069
 20
90.9243
 30
0.0
 40
0.5
 41
0.5
  0
VERTEX
  8
0
 10
296.069
 20
90.95
 30
0.0
 40
0.5
 41
0.5
  0
VERTEX
  8
0
 10
296.092
 20
91.1777
 30
0.0
 40
0.5
 41
0.5
  0
VERTEX
  8
0
 10
296.171
 20
91.4778
 30
0.0
 40
0.5
 41
0.5
  0
VERTEX
  8
0
 10
296.414
 20
91.8948
 30
0.0
 40
0.5
 41
0.5
  0
VERTEX
  8
0
 10
296.849
 20
92.0837
 30
0.0
 40
0.5
 41
0.5
  0
VERTEX
  8
0
 10
297.417
 20
91.7673
 30
0.0
 40
0.5
 41
0.5
  0
VERTEX
  8
0
 10
297.647
 20
91.0728
 30
0.0
 40
0.5
 41
0.5
  0
VERTEX
  8
0
 10
297.652
 20
91.0112
 30
0.0
 40
0.5
 41
0.5
  0
VERTEX
  8
0
 10
297.653
 20
90.95
 30
0.0
 40
0.5
 41
0.5
  0
VERTEX
  8
0
 10
297.644
 20
90.7607
 30
0.0
 40
0.5
 41
0.5
  0
VERTEX
  8
0
 10
297.617
 20
90.5598
 30
0.0
 40
0.5
 41
0.5
  0
VERTEX
  8
0
 10
297.383
 20
89.9839
 30
0.0
 40
0.5
 41
0.5
  0
VERTEX
  8
0
 10
296.873
 20
89.7229
 30
0.0
 40
0.5
 41
0.5
  0
VERTEX
  8
0
 10
296.395
 20
89.9224
 30
0.0
 40
0.5
 41
0.5
  0
VERTEX
  8
0
 10
296.153
 20
90.3618
 30
0.0
 40
0.5
 41
0.5
  0
VERTEX
  8
0
 10
296.089
 20
90.6663
 30
0.0
 40
0.5
 41
0.5
  0
VERTEX
  8
0
 10
296.073
 20
90.9019
 30
0.0
 40
0.5
 41
0.5
  0
VERTEX
  8
0
 10
296.073
 20
90.9048
 30
0.0
 40
0.5
 41
0.5
  0
SEQEND
  8
0
  0
POLYLINE
8
0
 62
     0
 66
     1
 10
0
 20
0
 30
0.0
 70
     1
 40
0.5
 41
0.5
  0
VERTEX
  8
0
 10
297.371
 20
90.929
 30
0.0
 40
0.5
 41
0.5
  0
VERTEX
  8
0
 10
297.254
 20
91.5229
 30
0.0
 40
0.5
 41
0.5
  0
VERTEX
  8
0
 10
297
 20
91.8137
 30
0.0
 40
0.5
 41
0.5
  0
VERTEX
  8
0
 10
296.947
 20
91.8364
 30
0.0
 40
0.5
 41
0.5
  0
VERTEX
  8
0
 10
296.897
 20
91.8469
 30
0.0
 40
0.5
 41
0.5
  0
VERTEX
  8
0
 10
296.887
 20
91.8484
 30
0.0
 40
0.5
 41
0.5
  0
VERTEX
  8
0
 10
296.876
 20
91.8499
 30
0.0
 40
0.5
 41
0.5
  0
VERTEX
  8
0
 10
296.866
 20
91.8499
 30
0.0
 40
0.5
 41
0.5
  0
VERTEX
  8
0
 10
296.855
 20
91.8499
 30
0.0
 40
0.5
 41
0.5
  0
VERTEX
  8
0
 10
296.557
 20
91.679
 30
0.0
 40
0.5
 41
0.5
  0
VERTEX
  8
0
 10
296.402
 20
91.304
 30
0.0
 40
0.5
 41
0.5
  0
VERTEX
  8
0
 10
296.365
 20
91.0864
 30
0.0
 40
0.5
 41
0.5
  0
VERTEX
  8
0
 10
296.354
 20
90.9019
 30
0.0
 40
0.5
 41
0.5
  0
VERTEX
  8
0
 10
296.366
 20
90.7219
 30
0.0
 40
0.5
 41
0.5
  0
VERTEX
  8
0
 10
296.406
 20
90.5088
 30
0.0
 40
0.5
 41
0.5
  0
VERTEX
  8
0
 10
296.56
 20
90.1458
 30
0.0
 40
0.5
 41
0.5
  0
VERTEX
  8
0
 10
296.849
 20
89.981
 30
0.0
 40
0.5
 41
0.5
  0
VERTEX
  8
0
 10
297.244
 20
90.2583
 30
0.0
 40
0.5
 41
0.5
  0
VERTEX
  8
0
 10
297.371
 20
90.9258
 30
0.0
 40
0.5
 41
0.5
  0
VERTEX
  8
0
 10
297.371
 20
90.929
 30
0.0
 40
0.5
 41
0.5
  0
SEQEND
  8
0
  0
POLYLINE
8
0
 62
     0
 66
     1
 10
0
 20
0
 30
0.0
 70
     1
 40
0.5
 41
0.5
  0
VERTEX
  8
0
 10
299.212
 20
92.3928
 30
0.0
 40
0.5
 41
0.5
  0
VERTEX
  8
0
 10
299.212
 20
89.7708
 30
0.0
 40
0.5
 41
0.5
  0
VERTEX
  8
0
 10
298.951
 20
89.7708
 30
0.0
 40
0.5
 41
0.5
  0
VERTEX
  8
0
 10
298.951
 20
90.0078
 30
0.0
 40
0.5
 41
0.5
  0
VERTEX
  8
0
 10
298.852
 20
89.8774
 30
0.0
 40
0.5
 41
0.5
  0
VERTEX
  8
0
 10
298.744
 20
89.7917
 30
0.0
 40
0.5
 41
0.5
  0
VERTEX
  8
0
 10
298.6
 20
89.7378
 30
0.0
 40
0.5
 41
0.5
  0
VERTEX
  8
0
 10
298.479
 20
89.7229
 30
0.0
 40
0.5
 41
0.5
  0
VERTEX
  8
0
 10
298.462
 20
89.7229
 30
0.0
 40
0.5
 41
0.5
  0
VERTEX
  8
0
 10
298.444
 20
89.7229
 30
0.0
 40
0.5
 41
0.5
  0
VERTEX
  8
0
 10
298.03
 20
89.8652
 30
0.0
 40
0.5
 41
0.5
  0
VERTEX
  8
0
 10
297.817
 20
90.1877
 30
0.0
 40
0.5
 41
0.5
  0
VERTEX
  8
0
 10
297.782
 20
90.3242
 30
0.0
 40
0.5
 41
0.5
  0
VERTEX
  8
0
 10
297.771
 20
90.4519
 30
0.0
 40
0.5
 41
0.5
  0
VERTEX
  8
0
 10
297.965
 20
91.0203
 30
0.0
 40
0.5
 41
0.5
  0
VERTEX
  8
0
 10
298.393
 20
91.2288
 30
0.0
 40
0.5
 41
0.5
  0
VERTEX
  8
0
 10
298.424
 20
91.2319
 30
0.0
 40
0.5
 41
0.5
  0
VERTEX
  8
0
 10
298.456
 20
91.2319
 30
0.0
 40
0.5
 41
0.5
  0
VERTEX
  8
0
 10
298.531
 20
91.2273
 30
0.0
 40
0.5
 41
0.5
  0
VERTEX
  8
0
 10
298.609
 20
91.2139
 30
0.0
 40
0.5
 41
0.5
  0
VERTEX
  8
0
 10
298.79
 20
91.1328
 30
0.0
 40
0.5
 41
0.5
  0
VERTEX
  8
0
 10
298.93
 20
90.9739
 30
0.0
 40
0.5
 41
0.5
  0
VERTEX
  8
0
 10
298.93
 20
92.3928
 30
0.0
 40
0.5
 41
0.5
  0
VERTEX
  8
0
 10
299.212
 20
92.3928
 30
0.0
 40
0.5
 41
0.5
  0
SEQEND
  8
0
  0
POLYLINE
8
0
 62
     0
 66
     1
 10
0
 20
0
 30
0.0
 70
     1
 40
0.5
 41
0.5
  0
VERTEX
  8
0
 10
298.93
 20
90.5029
 30
0.0
 40
0.5
 41
0.5
  0
VERTEX
  8
0
 10
298.823
 20
90.8628
 30
0.0
 40
0.5
 41
0.5
  0
VERTEX
  8
0
 10
298.504
 20
90.9949
 30
0.0
 40
0.5
 41
0.5
  0
VERTEX
  8
0
 10
298.199
 20
90.8674
 30
0.0
 40
0.5
 41
0.5
  0
VERTEX
  8
0
 10
298.066
 20
90.5869
 30
0.0
 40
0.5
 41
0.5
  0
VERTEX
  8
0
 10
298.057
 20
90.5193
 30
0.0
 40
0.5
 41
0.5
  0
VERTEX
  8
0
 10
298.054
 20
90.4519
 30
0.0
 40
0.5
 41
0.5
  0
VERTEX
  8
0
 10
298.063
 20
90.3574
 30
0.0
 40
0.5
 41
0.5
  0
VERTEX
  8
0
 10
298.093
 20
90.2507
 30
0.0
 40
0.5
 41
0.5
  0
VERTEX
  8
0
 10
298.229
 20
90.0483
 30
0.0
 40
0.5
 41
0.5
  0
VERTEX
  8
0
 10
298.504
 20
89.9568
 30
0.0
 40
0.5
 41
0.5
  0
VERTEX
  8
0
 10
298.799
 20
90.0842
 30
0.0
 40
0.5
 41
0.5
  0
VERTEX
  8
0
 10
298.917
 20
90.3647
 30
0.0
 40
0.5
 41
0.5
  0
VERTEX
  8
0
 10
298.927
 20
90.4324
 30
0.0
 40
0.5
 41
0.5
  0
VERTEX
  8
0
 10
298.93
 20
90.4998
 30
0.0
 40
0.5
 41
0.5
  0
VERTEX
  8
0
 10
298.93
 20
90.5029
 30
0.0
 40
0.5
 41
0.5
  0
SEQEND
  8
0
  0
POLYLINE
8
0
 62
     0
 66
     1
 10
0
 20
0
 30
0.0
 70
     1
 40
0.5
 41
0.5
  0
VERTEX
  8
0
 10
299.85
 20
92.0149
 30
0.0
 40
0.5
 41
0.5
  0
VERTEX
  8
0
 10
299.962
 20
92.0117
 30
0.0
 40
0.5
 41
0.5
  0
VERTEX
  8
0
 10
300.081
 20
92.0059
 30
0.0
 40
0.5
 41
0.5
  0
VERTEX
  8
0
 10
300.495
 20
91.8979
 30
0.0
 40
0.5
 41
0.5
  0
VERTEX
  8
0
 10
300.699
 20
91.4929
 30
0.0
 40
0.5
 41
0.5
  0
VERTEX
  8
0
 10
300.628
 20
91.1733
 30
0.0
 40
0.5
 41
0.5
  0
VERTEX
  8
0
 10
300.417
 20
90.9949
 30
0.0
 40
0.5
 41
0.5
  0
VERTEX
  8
0
 10
300.45
 20
90.9919
 30
0.0
 40
0.5
 41
0.5
  0
VERTEX
  8
0
 10
300.483
 20
90.9829
 30
0.0
 40
0.5
 41
0.5
  0
VERTEX
  8
0
 10
300.778
 20
90.7817
 30
0.0
 40
0.5
 41
0.5
  0
VERTEX
  8
0
 10
300.912
 20
90.3828
 30
0.0
 40
0.5
 41
0.5
  0
VERTEX
  8
0
 10
300.677
 20
89.9268
 30
0.0
 40
0.5
 41
0.5
  0
VERTEX
  8
0
 10
300.084
 20
89.7708
 30
0.0
 40
0.5
 41
0.5
  0
VERTEX
  8
0
 10
299.565
 20
89.7708
 30
0.0
 40
0.5
 41
0.5
  0
VERTEX
  8
0
 10
299.565
 20
92.0149
 30
0.0
 40
0.5
 41
0.5
  0
VERTEX
  8
0
 10
299.85
 20
92.0149
 30
0.0
 40
0.5
 41
0.5
  0
SEQEND
  8
0
  0
POLYLINE
8
0
 62
     0
 66
     1
 10
0
 20
0
 30
0.0
 70
     1
 40
0.5
 41
0.5
  0
VERTEX
  8
0
 10
299.871
 20
90.8328
 30
0.0
 40
0.5
 41
0.5
  0
VERTEX
  8
0
 10
299.871
 20
90.0078
 30
0.0
 40
0.5
 41
0.5
  0
VERTEX
  8
0
 10
299.958
 20
89.9973
 30
0.0
 40
0.5
 41
0.5
  0
VERTEX
  8
0
 10
300.039
 20
89.9929
 30
0.0
 40
0.5
 41
0.5
  0
VERTEX
  8
0
 10
300.372
 20
90.0574
 30
0.0
 40
0.5
 41
0.5
  0
VERTEX
  8
0
 10
300.549
 20
90.2
 30
0.0
 40
0.5
 41
0.5
  0
VERTEX
  8
0
 10
300.592
 20
90.2869
 30
0.0
 40
0.5
 41
0.5
  0
VERTEX
  8
0
 10
300.606
 20
90.3589
 30
0.0
 40
0.5
 41
0.5
  0
VERTEX
  8
0
 10
300.606
 20
90.377
 30
0.0
 40
0.5
 41
0.5
  0
VERTEX
  8
0
 10
300.606
 20
90.3979
 30
0.0
 40
0.5
 41
0.5
  0
VERTEX
  8
0
 10
300.427
 20
90.7278
 30
0.0
 40
0.5
 41
0.5
  0
VERTEX
  8
0
 10
299.871
 20
90.8298
 30
0.0
 40
0.5
 41
0.5
  0
VERTEX
  8
0
 10
299.871
 20
90.8328
 30
0.0
 40
0.5
 41
0.5
  0
SEQEND
  8
0
  0
POLYLINE
8
0
 62
     0
 66
     1
 10
0
 20
0
 30
0.0
 70
     1
 40
0.5
 41
0.5
  0
VERTEX
  8
0
 10
299.871
 20
91.8018
 30
0.0
 40
0.5
 41
0.5
  0
VERTEX
  8
0
 10
299.871
 20
91.0459
 30
0.0
 40
0.5
 41
0.5
  0
VERTEX
  8
0
 10
299.92
 20
91.0398
 30
0.0
 40
0.5
 41
0.5
  0
VERTEX
  8
0
 10
299.97
 20
91.0398
 30
0.0
 40
0.5
 41
0.5
  0
VERTEX
  8
0
 10
300.303
 20
91.1223
 30
0.0
 40
0.5
 41
0.5
  0
VERTEX
  8
0
 10
300.417
 20
91.3967
 30
0.0
 40
0.5
 41
0.5
  0
VERTEX
  8
0
 10
300.417
 20
91.4043
 30
0.0
 40
0.5
 41
0.5
  0
VERTEX
  8
0
 10
300.417
 20
91.4119
 30
0.0
 40
0.5
 41
0.5
  0
VERTEX
  8
0
 10
300.415
 20
91.4792
 30
0.0
 40
0.5
 41
0.5
  0
VERTEX
  8
0
 10
300.405
 20
91.5559
 30
0.0
 40
0.5
 41
0.5
  0
VERTEX
  8
0
 10
300.286
 20
91.7239
 30
0.0
 40
0.5
 41
0.5
  0
VERTEX
  8
0
 10
299.94
 20
91.7988
 30
0.0
 40
0.5
 41
0.5
  0
VERTEX
  8
0
 10
299.907
 20
91.7988
 30
0.0
 40
0.5
 41
0.5
  0
VERTEX
  8
0
 10
299.871
 20
91.7988
 30
0.0
 40
0.5
 41
0.5
  0
VERTEX
  8
0
 10
299.871
 20
91.8018
 30
0.0
 40
0.5
 41
0.5
  0
SEQEND
  8
0
  0
POLYLINE
8
0
 62
     0
 66
     1
 10
0
 20
0
 30
0.0
 40
0.5
 41
0.5
  0
VERTEX
  8
0
 10
70.9487
 20
111.237
 30
0.0
 40
0.5
 41
0.5
  0
VERTEX
  8
0
 10
75.3284
 20
111.237
 30
0.0
 40
0.5
 41
0.5
  0
SEQEND
  8
0
  0
POLYLINE
8
0
 62
     0
 66
     1
 10
0
 20
0
 30
0.0
 40
0.5
 41
0.5
  0
VERTEX
  8
0
 10
73.1384
 20
109.047
 30
0.0
 40
0.5
 41
0.5
  0
VERTEX
  8
0
 10
73.1384
 20
113.427
 30
0.0
 40
0.5
 41
0.5
  0
SEQEND
  8
0
  0
POLYLINE
8
0
 62
     0
 66
     1
 10
0
 20
0
 30
0.0
 40
0.5
 41
0.5
  0
VERTEX
  8
0
 10
70.9487
 20
74.3867
 30
0.0
 40
0.5
 41
0.5
  0
VERTEX
  8
0
 10
75.3284
 20
74.3867
 30
0.0
 40
0.5
 41
0.5
  0
SEQEND
  8
0
  0
POLYLINE
8
0
 62
     0
 66
     1
 10
0
 20
0
 30
0.0
 40
0.5
 41
0.5
  0
VERTEX
  8
0
 10
73.1384
 20
72.197
 30
0.0
 40
0.5
 41
0.5
  0
VERTEX
  8
0
 10
73.1384
 20
76.5767
 30
0.0
 40
0.5
 41
0.5
  0
SEQEND
  8
0
  0
POLYLINE
8
0
 62
     0
 66
     1
 10
0
 20
0
 30
0.0
 40
0.5
 41
0.5
  0
VERTEX
  8
0
 10
354.413
 20
111.237
 30
0.0
 40
0.5
 41
0.5
  0
VERTEX
  8
0
 10
358.793
 20
111.237
 30
0.0
 40
0.5
 41
0.5
  0
SEQEND
  8
0
  0
POLYLINE
8
0
 62
     0
 66
     1
 10
0
 20
0
 30
0.0
 40
0.5
 41
0.5
  0
VERTEX
  8
0
 10
356.603
 20
109.047
 30
0.0
 40
0.5
 41
0.5
  0
VERTEX
  8
0
 10
356.603
 20
113.427
 30
0.0
 40
0.5
 41
0.5
  0
SEQEND
  8
0
  0
POLYLINE
8
0
 62
     0
 66
     1
 10
0
 20
0
 30
0.0
 40
0.5
 41
0.5
  0
VERTEX
  8
0
 10
354.413
 20
74.3867
 30
0.0
 40
0.5
 41
0.5
  0
VERTEX
  8
0
 10
358.793
 20
74.3867
 30
0.0
 40
0.5
 41
0.5
  0
SEQEND
  8
0
  0
POLYLINE
8
0
 62
     0
 66
     1
 10
0
 20
0
 30
0.0
 40
0.5
 41
0.5
  0
VERTEX
  8
0
 10
356.603
 20
72.197
 30
0.0
 40
0.5
 41
0.5
  0
VERTEX
  8
0
 10
356.603
 20
76.5767
 30
0.0
 40
0.5
 41
0.5
  0
SEQEND
  8
0
  0
POLYLINE
8
0
 62
     0
 66
     1
 10
0
 20
0
 30
0.0
 70
     1
 40
0.5
 41
0.5
  0
VERTEX
  8
0
 10
175.186
 20
82.1821
 30
0.0
 40
0.5
 41
0.5
  0
VERTEX
  8
0
 10
175.52
 20
83.8372
 30
0.0
 40
0.5
 41
0.5
  0
VERTEX
  8
0
 10
176.431
 20
85.1887
 30
0.0
 40
0.5
 41
0.5
  0
VERTEX
  8
0
 10
177.783
 20
86.0999
 30
0.0
 40
0.5
 41
0.5
  0
VERTEX
  8
0
 10
179.438
 20
86.4338
 30
0.0
 40
0.5
 41
0.5
  0
VERTEX
  8
0
 10
181.093
 20
86.0999
 30
0.0
 40
0.5
 41
0.5
  0
VERTEX
  8
0
 10
182.444
 20
85.1887
 30
0.0
 40
0.5
 41
0.5
  0
VERTEX
  8
0
 10
183.355
 20
83.8372
 30
0.0
 40
0.5
 41
0.5
  0
VERTEX
  8
0
 10
183.689
 20
82.1821
 30
0.0
 40
0.5
 41
0.5
  0
VERTEX
  8
0
 10
183.355
 20
80.5273
 30
0.0
 40
0.5
 41
0.5
  0
VERTEX
  8
0
 10
182.444
 20
79.1758
 30
0.0
 40
0.5
 41
0.5
  0
VERTEX
  8
0
 10
181.093
 20
78.2646
 30
0.0
 40
0.5
 41
0.5
  0
VERTEX
  8
0
 10
179.438
 20
77.9304
 30
0.0
 40
0.5
 41
0.5
  0
VERTEX
  8
0
 10
177.783
 20
78.2646
 30
0.0
 40
0.5
 41
0.5
  0
VERTEX
  8
0
 10
176.431
 20
79.1758
 30
0.0
 40
0.5
 41
0.5
  0
VERTEX
  8
0
 10
175.52
 20
80.5273
 30
0.0
 40
0.5
 41
0.5
  0
VERTEX
  8
0
 10
175.186
 20
82.1821
 30
0.0
 40
0.5
 41
0.5
  0
SEQEND
  8
0
  0
POLYLINE
8
0
 62
     0
 66
     1
 10
0
 20
0
 30
0.0
 70
     1
 40
0.5
 41
0.5
  0
VERTEX
  8
0
 10
179.119
 20
77.9321
 30
0.0
 40
0.5
 41
0.5
  0
VERTEX
  8
0
 10
179.119
 20
86.4321
 30
0.0
 40
0.5
 41
0.5
  0
VERTEX
  8
0
 10
179.931
 20
86.4321
 30
0.0
 40
0.5
 41
0.5
  0
VERTEX
  8
0
 10
179.931
 20
77.9321
 30
0.0
 40
0.5
 41
0.5
  0
VERTEX
  8
0
 10
179.119
 20
77.9321
 30
0.0
 40
0.5
 41
0.5
  0
SEQEND
  8
0
  0
POLYLINE
8
0
 62
     0
 66
     1
 10
0
 20
0
 30
0.0
 70
     1
 40
0.5
 41
0.5
  0
VERTEX
  8
0
 10
214.871
 20
82.1821
 30
0.0
 40
0.5
 41
0.5
  0
VERTEX
  8
0
 10
215.205
 20
83.8372
 30
0.0
 40
0.5
 41
0.5
  0
VERTEX
  8
0
 10
216.116
 20
85.1887
 30
0.0
 40
0.5
 41
0.5
  0
VERTEX
  8
0
 10
217.468
 20
86.0999
 30
0.0
 40
0.5
 41
0.5
  0
VERTEX
  8
0
 10
219.123
 20
86.4338
 30
0.0
 40
0.5
 41
0.5
  0
VERTEX
  8
0
 10
220.778
 20
86.0999
 30
0.0
 40
0.5
 41
0.5
  0
VERTEX
  8
0
 10
222.129
 20
85.1887
 30
0.0
 40
0.5
 41
0.5
  0
VERTEX
  8
0
 10
223.04
 20
83.8372
 30
0.0
 40
0.5
 41
0.5
  0
VERTEX
  8
0
 10
223.375
 20
82.1821
 30
0.0
 40
0.5
 41
0.5
  0
VERTEX
  8
0
 10
223.04
 20
80.5273
 30
0.0
 40
0.5
 41
0.5
  0
VERTEX
  8
0
 10
222.129
 20
79.1758
 30
0.0
 40
0.5
 41
0.5
  0
VERTEX
  8
0
 10
220.778
 20
78.2646
 30
0.0
 40
0.5
 41
0.5
  0
VERTEX
  8
0
 10
219.123
 20
77.9304
 30
0.0
 40
0.5
 41
0.5
  0
VERTEX
  8
0
 10
217.468
 20
78.2646
 30
0.0
 40
0.5
 41
0.5
  0
VERTEX
  8
0
 10
216.116
 20
79.1758
 30
0.0
 40
0.5
 41
0.5
  0
VERTEX
  8
0
 10
215.205
 20
80.5273
 30
0.0
 40
0.5
 41
0.5
  0
VERTEX
  8
0
 10
214.871
 20
82.1821
 30
0.0
 40
0.5
 41
0.5
  0
SEQEND
  8
0
  0
POLYLINE
8
0
 62
     0
 66
     1
 10
0
 20
0
 30
0.0
 70
     1
 40
0.5
 41
0.5
  0
VERTEX
  8
0
 10
218.804
 20
77.9321
 30
0.0
 40
0.5
 41
0.5
  0
VERTEX
  8
0
 10
218.804
 20
86.4321
 30
0.0
 40
0.5
 41
0.5
  0
VERTEX
  8
0
 10
219.616
 20
86.4321
 30
0.0
 40
0.5
 41
0.5
  0
VERTEX
  8
0
 10
219.616
 20
77.9321
 30
0.0
 40
0.5
 41
0.5
  0
VERTEX
  8
0
 10
218.804
 20
77.9321
 30
0.0
 40
0.5
 41
0.5
  0
SEQEND
  8
0
  0
POLYLINE
8
0
 62
     0
 66
     1
 10
0
 20
0
 30
0.0
 70
     1
 40
0.5
 41
0.5
  0
VERTEX
  8
0
 10
254.556
 20
82.1821
 30
0.0
 40
0.5
 41
0.5
  0
VERTEX
  8
0
 10
254.89
 20
83.8372
 30
0.0
 40
0.5
 41
0.5
  0
VERTEX
  8
0
 10
255.801
 20
85.1887
 30
0.0
 40
0.5
 41
0.5
  0
VERTEX
  8
0
 10
257.153
 20
86.0999
 30
0.0
 40
0.5
 41
0.5
  0
VERTEX
  8
0
 10
258.808
 20
86.4338
 30
0.0
 40
0.5
 41
0.5
  0
VERTEX
  8
0
 10
260.463
 20
86.0999
 30
0.0
 40
0.5
 41
0.5
  0
VERTEX
  8
0
 10
261.814
 20
85.1887
 30
0.0
 40
0.5
 41
0.5
  0
VERTEX
  8
0
 10
262.725
 20
83.8372
 30
0.0
 40
0.5
 41
0.5
  0
VERTEX
  8
0
 10
263.06
 20
82.1821
 30
0.0
 40
0.5
 41
0.5
  0
VERTEX
  8
0
 10
262.725
 20
80.5273
 30
0.0
 40
0.5
 41
0.5
  0
VERTEX
  8
0
 10
261.814
 20
79.1758
 30
0.0
 40
0.5
 41
0.5
  0
VERTEX
  8
0
 10
260.463
 20
78.2646
 30
0.0
 40
0.5
 41
0.5
  0
VERTEX
  8
0
 10
258.808
 20
77.9304
 30
0.0
 40
0.5
 41
0.5
  0
VERTEX
  8
0
 10
257.153
 20
78.2646
 30
0.0
 40
0.5
 41
0.5
  0
VERTEX
  8
0
 10
255.801
 20
79.1758
 30
0.0
 40
0.5
 41
0.5
  0
VERTEX
  8
0
 10
254.89
 20
80.5273
 30
0.0
 40
0.5
 41
0.5
  0
VERTEX
  8
0
 10
254.556
 20
82.1821
 30
0.0
 40
0.5
 41
0.5
  0
SEQEND
  8
0
  0
POLYLINE
8
0
 62
     0
 66
     1
 10
0
 20
0
 30
0.0
 70
     1
 40
0.5
 41
0.5
  0
VERTEX
  8
0
 10
258.489
 20
77.9321
 30
0.0
 40
0.5
 41
0.5
  0
VERTEX
  8
0
 10
258.489
 20
86.4321
 30
0.0
 40
0.5
 41
0.5
  0
VERTEX
  8
0
 10
259.301
 20
86.4321
 30
0.0
 40
0.5
 41
0.5
  0
VERTEX
  8
0
 10
259.301
 20
77.9321
 30
0.0
 40
0.5
 41
0.5
  0
VERTEX
  8
0
 10
258.489
 20
77.9321
 30
0.0
 40
0.5
 41
0.5
  0
SEQEND
  8
0
  0
POLYLINE
8
0
 62
     0
 66
     1
 10
0
 20
0
 30
0.0
 70
     1
 40
0.5
 41
0.5
  0
VERTEX
  8
0
 10
294.241
 20
82.1821
 30
0.0
 40
0.5
 41
0.5
  0
VERTEX
  8
0
 10
294.575
 20
83.8372
 30
0.0
 40
0.5
 41
0.5
  0
VERTEX
  8
0
 10
295.486
 20
85.1887
 30
0.0
 40
0.5
 41
0.5
  0
VERTEX
  8
0
 10
296.838
 20
86.0999
 30
0.0
 40
0.5
 41
0.5
  0
VERTEX
  8
0
 10
298.493
 20
86.4338
 30
0.0
 40
0.5
 41
0.5
  0
VERTEX
  8
0
 10
300.148
 20
86.0999
 30
0.0
 40
0.5
 41
0.5
  0
VERTEX
  8
0
 10
301.499
 20
85.1887
 30
0.0
 40
0.5
 41
0.5
  0
VERTEX
  8
0
 10
302.41
 20
83.8372
 30
0.0
 40
0.5
 41
0.5
  0
VERTEX
  8
0
 10
302.745
 20
82.1821
 30
0.0
 40
0.5
 41
0.5
  0
VERTEX
  8
0
 10
302.41
 20
80.5273
 30
0.0
 40
0.5
 41
0.5
  0
VERTEX
  8
0
 10
301.499
 20
79.1758
 30
0.0
 40
0.5
 41
0.5
  0
VERTEX
  8
0
 10
300.148
 20
78.2646
 30
0.0
 40
0.5
 41
0.5
  0
VERTEX
  8
0
 10
298.493
 20
77.9304
 30
0.0
 40
0.5
 41
0.5
  0
VERTEX
  8
0
 10
296.838
 20
78.2646
 30
0.0
 40
0.5
 41
0.5
  0
VERTEX
  8
0
 10
295.486
 20
79.1758
 30
0.0
 40
0.5
 41
0.5
  0
VERTEX
  8
0
 10
294.575
 20
80.5273
 30
0.0
 40
0.5
 41
0.5
  0
VERTEX
  8
0
 10
294.241
 20
82.1821
 30
0.0
 40
0.5
 41
0.5
  0
SEQEND
  8
0
  0
POLYLINE
8
0
 62
     0
 66
     1
 10
0
 20
0
 30
0.0
 70
     1
 40
0.5
 41
0.5
  0
VERTEX
  8
0
 10
298.174
 20
77.9321
 30
0.0
 40
0.5
 41
0.5
  0
VERTEX
  8
0
 10
298.174
 20
86.4321
 30
0.0
 40
0.5
 41
0.5
  0
VERTEX
  8
0
 10
298.986
 20
86.4321
 30
0.0
 40
0.5
 41
0.5
  0
VERTEX
  8
0
 10
298.986
 20
77.9321
 30
0.0
 40
0.5
 41
0.5
  0
VERTEX
  8
0
 10
298.174
 20
77.9321
 30
0.0
 40
0.5
 41
0.5
  0
SEQEND
  8
0
  0
POLYLINE
8
0
 62
     0
 66
     1
 10
0
 20
0
 30
0.0
 40
0.5
 41
0.5
  0
VERTEX
  8
0
 10
179.156
 20
89.0591
 30
0.0
 40
0.5
 41
0.5
  0
VERTEX
  8
0
 10
179.156
 20
86.2686
 30
0.0
 40
0.5
 41
0.5
  0
SEQEND
  8
0
  0
POLYLINE
8
0
 62
     0
 66
     1
 10
0
 20
0
 30
0.0
 40
0.5
 41
0.5
  0
VERTEX
  8
0
 10
179.749
 20
89.0591
 30
0.0
 40
0.5
 41
0.5
  0
VERTEX
  8
0
 10
179.749
 20
86.2686
 30
0.0
 40
0.5
 41
0.5
  0
SEQEND
  8
0
  0
POLYLINE
8
0
 62
     0
 66
     1
 10
0
 20
0
 30
0.0
 40
0.5
 41
0.5
  0
VERTEX
  8
0
 10
175.753
 20
87.999
 30
0.0
 40
0.5
 41
0.5
  0
VERTEX
  8
0
 10
177.149
 20
85.5825
 30
0.0
 40
0.5
 41
0.5
  0
SEQEND
  8
0
  0
POLYLINE
8
0
 62
     0
 66
     1
 10
0
 20
0
 30
0.0
 40
0.5
 41
0.5
  0
VERTEX
  8
0
 10
176.267
 20
88.2959
 30
0.0
 40
0.5
 41
0.5
  0
VERTEX
  8
0
 10
177.663
 20
85.8792
 30
0.0
 40
0.5
 41
0.5
  0
SEQEND
  8
0
  0
POLYLINE
8
0
 62
     0
 66
     1
 10
0
 20
0
 30
0.0
 40
0.5
 41
0.5
  0
VERTEX
  8
0
 10
173.337
 20
85.3801
 30
0.0
 40
0.5
 41
0.5
  0
VERTEX
  8
0
 10
175.754
 20
83.9846
 30
0.0
 40
0.5
 41
0.5
  0
SEQEND
  8
0
  0
POLYLINE
8
0
 62
     0
 66
     1
 10
0
 20
0
 30
0.0
 40
0.5
 41
0.5
  0
VERTEX
  8
0
 10
173.634
 20
85.894
 30
0.0
 40
0.5
 41
0.5
  0
VERTEX
  8
0
 10
176.05
 20
84.4988
 30
0.0
 40
0.5
 41
0.5
  0
SEQEND
  8
0
  0
POLYLINE
8
0
 62
     0
 66
     1
 10
0
 20
0
 30
0.0
 40
0.5
 41
0.5
  0
VERTEX
  8
0
 10
172.554
 20
81.9036
 30
0.0
 40
0.5
 41
0.5
  0
VERTEX
  8
0
 10
175.344
 20
81.9036
 30
0.0
 40
0.5
 41
0.5
  0
SEQEND
  8
0
  0
POLYLINE
8
0
 62
     0
 66
     1
 10
0
 20
0
 30
0.0
 40
0.5
 41
0.5
  0
VERTEX
  8
0
 10
172.554
 20
82.4973
 30
0.0
 40
0.5
 41
0.5
  0
VERTEX
  8
0
 10
175.344
 20
82.4973
 30
0.0
 40
0.5
 41
0.5
  0
SEQEND
  8
0
  0
POLYLINE
8
0
 62
     0
 66
     1
 10
0
 20
0
 30
0.0
 40
0.5
 41
0.5
  0
VERTEX
  8
0
 10
173.614
 20
78.5012
 30
0.0
 40
0.5
 41
0.5
  0
VERTEX
  8
0
 10
176.031
 20
79.8967
 30
0.0
 40
0.5
 41
0.5
  0
SEQEND
  8
0
  0
POLYLINE
8
0
 62
     0
 66
     1
 10
0
 20
0
 30
0.0
 40
0.5
 41
0.5
  0
VERTEX
  8
0
 10
173.317
 20
79.0154
 30
0.0
 40
0.5
 41
0.5
  0
VERTEX
  8
0
 10
175.734
 20
80.4106
 30
0.0
 40
0.5
 41
0.5
  0
SEQEND
  8
0
  0
POLYLINE
8
0
 62
     0
 66
     1
 10
0
 20
0
 30
0.0
 40
0.5
 41
0.5
  0
VERTEX
  8
0
 10
176.233
 20
76.085
 30
0.0
 40
0.5
 41
0.5
  0
VERTEX
  8
0
 10
177.628
 20
78.5017
 30
0.0
 40
0.5
 41
0.5
  0
SEQEND
  8
0
  0
POLYLINE
8
0
 62
     0
 66
     1
 10
0
 20
0
 30
0.0
 40
0.5
 41
0.5
  0
VERTEX
  8
0
 10
175.719
 20
76.3818
 30
0.0
 40
0.5
 41
0.5
  0
VERTEX
  8
0
 10
177.114
 20
78.7983
 30
0.0
 40
0.5
 41
0.5
  0
SEQEND
  8
0
  0
POLYLINE
8
0
 62
     0
 66
     1
 10
0
 20
0
 30
0.0
 40
0.5
 41
0.5
  0
VERTEX
  8
0
 10
182.632
 20
88.2761
 30
0.0
 40
0.5
 41
0.5
  0
VERTEX
  8
0
 10
181.237
 20
85.8591
 30
0.0
 40
0.5
 41
0.5
  0
SEQEND
  8
0
  0
POLYLINE
8
0
 62
     0
 66
     1
 10
0
 20
0
 30
0.0
 40
0.5
 41
0.5
  0
VERTEX
  8
0
 10
183.146
 20
87.9792
 30
0.0
 40
0.5
 41
0.5
  0
VERTEX
  8
0
 10
181.751
 20
85.5625
 30
0.0
 40
0.5
 41
0.5
  0
SEQEND
  8
0
  0
POLYLINE
8
0
 62
     0
 66
     1
 10
0
 20
0
 30
0.0
 40
0.5
 41
0.5
  0
VERTEX
  8
0
 10
185.251
 20
85.8596
 30
0.0
 40
0.5
 41
0.5
  0
VERTEX
  8
0
 10
182.834
 20
84.4644
 30
0.0
 40
0.5
 41
0.5
  0
SEQEND
  8
0
  0
POLYLINE
8
0
 62
     0
 66
     1
 10
0
 20
0
 30
0.0
 40
0.5
 41
0.5
  0
VERTEX
  8
0
 10
185.548
 20
85.3457
 30
0.0
 40
0.5
 41
0.5
  0
VERTEX
  8
0
 10
183.131
 20
83.9502
 30
0.0
 40
0.5
 41
0.5
  0
SEQEND
  8
0
  0
POLYLINE
8
0
 62
     0
 66
     1
 10
0
 20
0
 30
0.0
 40
0.5
 41
0.5
  0
VERTEX
  8
0
 10
186.311
 20
82.4573
 30
0.0
 40
0.5
 41
0.5
  0
VERTEX
  8
0
 10
183.521
 20
82.4573
 30
0.0
 40
0.5
 41
0.5
  0
SEQEND
  8
0
  0
POLYLINE
8
0
 62
     0
 66
     1
 10
0
 20
0
 30
0.0
 40
0.5
 41
0.5
  0
VERTEX
  8
0
 10
186.311
 20
81.8638
 30
0.0
 40
0.5
 41
0.5
  0
VERTEX
  8
0
 10
183.521
 20
81.8638
 30
0.0
 40
0.5
 41
0.5
  0
SEQEND
  8
0
  0
POLYLINE
8
0
 62
     0
 66
     1
 10
0
 20
0
 30
0.0
 40
0.5
 41
0.5
  0
VERTEX
  8
0
 10
185.528
 20
78.981
 30
0.0
 40
0.5
 41
0.5
  0
VERTEX
  8
0
 10
183.111
 20
80.3762
 30
0.0
 40
0.5
 41
0.5
  0
SEQEND
  8
0
  0
POLYLINE
8
0
 62
     0
 66
     1
 10
0
 20
0
 30
0.0
 40
0.5
 41
0.5
  0
VERTEX
  8
0
 10
185.231
 20
78.467
 30
0.0
 40
0.5
 41
0.5
  0
VERTEX
  8
0
 10
182.814
 20
79.8623
 30
0.0
 40
0.5
 41
0.5
  0
SEQEND
  8
0
  0
POLYLINE
8
0
 62
     0
 66
     1
 10
0
 20
0
 30
0.0
 40
0.5
 41
0.5
  0
VERTEX
  8
0
 10
183.112
 20
76.3618
 30
0.0
 40
0.5
 41
0.5
  0
VERTEX
  8
0
 10
181.716
 20
78.7786
 30
0.0
 40
0.5
 41
0.5
  0
SEQEND
  8
0
  0
POLYLINE
8
0
 62
     0
 66
     1
 10
0
 20
0
 30
0.0
 40
0.5
 41
0.5
  0
VERTEX
  8
0
 10
182.597
 20
76.0649
 30
0.0
 40
0.5
 41
0.5
  0
VERTEX
  8
0
 10
181.202
 20
78.4819
 30
0.0
 40
0.5
 41
0.5
  0
SEQEND
  8
0
  0
POLYLINE
8
0
 62
     0
 66
     1
 10
0
 20
0
 30
0.0
 40
0.5
 41
0.5
  0
VERTEX
  8
0
 10
218.841
 20
89.0591
 30
0.0
 40
0.5
 41
0.5
  0
VERTEX
  8
0
 10
218.841
 20
86.2686
 30
0.0
 40
0.5
 41
0.5
  0
SEQEND
  8
0
  0
POLYLINE
8
0
 62
     0
 66
     1
 10
0
 20
0
 30
0.0
 40
0.5
 41
0.5
  0
VERTEX
  8
0
 10
219.434
 20
89.0591
 30
0.0
 40
0.5
 41
0.5
  0
VERTEX
  8
0
 10
219.434
 20
86.2686
 30
0.0
 40
0.5
 41
0.5
  0
SEQEND
  8
0
  0
POLYLINE
8
0
 62
     0
 66
     1
 10
0
 20
0
 30
0.0
 40
0.5
 41
0.5
  0
VERTEX
  8
0
 10
215.438
 20
87.999
 30
0.0
 40
0.5
 41
0.5
  0
VERTEX
  8
0
 10
216.833
 20
85.5825
 30
0.0
 40
0.5
 41
0.5
  0
SEQEND
  8
0
  0
POLYLINE
8
0
 62
     0
 66
     1
 10
0
 20
0
 30
0.0
 40
0.5
 41
0.5
  0
VERTEX
  8
0
 10
215.952
 20
88.2959
 30
0.0
 40
0.5
 41
0.5
  0
VERTEX
  8
0
 10
217.348
 20
85.8792
 30
0.0
 40
0.5
 41
0.5
  0
SEQEND
  8
0
  0
POLYLINE
8
0
 62
     0
 66
     1
 10
0
 20
0
 30
0.0
 40
0.5
 41
0.5
  0
VERTEX
  8
0
 10
213.022
 20
85.3801
 30
0.0
 40
0.5
 41
0.5
  0
VERTEX
  8
0
 10
215.439
 20
83.9846
 30
0.0
 40
0.5
 41
0.5
  0
SEQEND
  8
0
  0
POLYLINE
8
0
 62
     0
 66
     1
 10
0
 20
0
 30
0.0
 40
0.5
 41
0.5
  0
VERTEX
  8
0
 10
213.319
 20
85.894
 30
0.0
 40
0.5
 41
0.5
  0
VERTEX
  8
0
 10
215.736
 20
84.4988
 30
0.0
 40
0.5
 41
0.5
  0
SEQEND
  8
0
  0
POLYLINE
8
0
 62
     0
 66
     1
 10
0
 20
0
 30
0.0
 40
0.5
 41
0.5
  0
VERTEX
  8
0
 10
212.239
 20
81.9036
 30
0.0
 40
0.5
 41
0.5
  0
VERTEX
  8
0
 10
215.029
 20
81.9036
 30
0.0
 40
0.5
 41
0.5
  0
SEQEND
  8
0
  0
POLYLINE
8
0
 62
     0
 66
     1
 10
0
 20
0
 30
0.0
 40
0.5
 41
0.5
  0
VERTEX
  8
0
 10
212.239
 20
82.4973
 30
0.0
 40
0.5
 41
0.5
  0
VERTEX
  8
0
 10
215.029
 20
82.4973
 30
0.0
 40
0.5
 41
0.5
  0
SEQEND
  8
0
  0
POLYLINE
8
0
 62
     0
 66
     1
 10
0
 20
0
 30
0.0
 40
0.5
 41
0.5
  0
VERTEX
  8
0
 10
213.299
 20
78.5012
 30
0.0
 40
0.5
 41
0.5
  0
VERTEX
  8
0
 10
215.716
 20
79.8967
 30
0.0
 40
0.5
 41
0.5
  0
SEQEND
  8
0
  0
POLYLINE
8
0
 62
     0
 66
     1
 10
0
 20
0
 30
0.0
 40
0.5
 41
0.5
  0
VERTEX
  8
0
 10
213.002
 20
79.0154
 30
0.0
 40
0.5
 41
0.5
  0
VERTEX
  8
0
 10
215.419
 20
80.4106
 30
0.0
 40
0.5
 41
0.5
  0
SEQEND
  8
0
  0
POLYLINE
8
0
 62
     0
 66
     1
 10
0
 20
0
 30
0.0
 40
0.5
 41
0.5
  0
VERTEX
  8
0
 10
215.918
 20
76.085
 30
0.0
 40
0.5
 41
0.5
  0
VERTEX
  8
0
 10
217.313
 20
78.5017
 30
0.0
 40
0.5
 41
0.5
  0
SEQEND
  8
0
  0
POLYLINE
8
0
 62
     0
 66
     1
 10
0
 20
0
 30
0.0
 40
0.5
 41
0.5
  0
VERTEX
  8
0
 10
215.404
 20
76.3818
 30
0.0
 40
0.5
 41
0.5
  0
VERTEX
  8
0
 10
216.799
 20
78.7983
 30
0.0
 40
0.5
 41
0.5
  0
SEQEND
  8
0
  0
POLYLINE
8
0
 62
     0
 66
     1
 10
0
 20
0
 30
0.0
 40
0.5
 41
0.5
  0
VERTEX
  8
0
 10
222.317
 20
88.2761
 30
0.0
 40
0.5
 41
0.5
  0
VERTEX
  8
0
 10
220.922
 20
85.8591
 30
0.0
 40
0.5
 41
0.5
  0
SEQEND
  8
0
  0
POLYLINE
8
0
 62
     0
 66
     1
 10
0
 20
0
 30
0.0
 40
0.5
 41
0.5
  0
VERTEX
  8
0
 10
222.831
 20
87.9792
 30
0.0
 40
0.5
 41
0.5
  0
VERTEX
  8
0
 10
221.436
 20
85.5625
 30
0.0
 40
0.5
 41
0.5
  0
SEQEND
  8
0
  0
POLYLINE
8
0
 62
     0
 66
     1
 10
0
 20
0
 30
0.0
 40
0.5
 41
0.5
  0
VERTEX
  8
0
 10
224.936
 20
85.8596
 30
0.0
 40
0.5
 41
0.5
  0
VERTEX
  8
0
 10
222.519
 20
84.4644
 30
0.0
 40
0.5
 41
0.5
  0
SEQEND
  8
0
  0
POLYLINE
8
0
 62
     0
 66
     1
 10
0
 20
0
 30
0.0
 40
0.5
 41
0.5
  0
VERTEX
  8
0
 10
225.233
 20
85.3457
 30
0.0
 40
0.5
 41
0.5
  0
VERTEX
  8
0
 10
222.816
 20
83.9502
 30
0.0
 40
0.5
 41
0.5
  0
SEQEND
  8
0
  0
POLYLINE
8
0
 62
     0
 66
     1
 10
0
 20
0
 30
0.0
 40
0.5
 41
0.5
  0
VERTEX
  8
0
 10
225.996
 20
82.4573
 30
0.0
 40
0.5
 41
0.5
  0
VERTEX
  8
0
 10
223.206
 20
82.4573
 30
0.0
 40
0.5
 41
0.5
  0
SEQEND
  8
0
  0
POLYLINE
8
0
 62
     0
 66
     1
 10
0
 20
0
 30
0.0
 40
0.5
 41
0.5
  0
VERTEX
  8
0
 10
225.996
 20
81.8638
 30
0.0
 40
0.5
 41
0.5
  0
VERTEX
  8
0
 10
223.206
 20
81.8638
 30
0.0
 40
0.5
 41
0.5
  0
SEQEND
  8
0
  0
POLYLINE
8
0
 62
     0
 66
     1
 10
0
 20
0
 30
0.0
 40
0.5
 41
0.5
  0
VERTEX
  8
0
 10
225.213
 20
78.981
 30
0.0
 40
0.5
 41
0.5
  0
VERTEX
  8
0
 10
222.796
 20
80.3762
 30
0.0
 40
0.5
 41
0.5
  0
SEQEND
  8
0
  0
POLYLINE
8
0
 62
     0
 66
     1
 10
0
 20
0
 30
0.0
 40
0.5
 41
0.5
  0
VERTEX
  8
0
 10
224.916
 20
78.467
 30
0.0
 40
0.5
 41
0.5
  0
VERTEX
  8
0
 10
222.5
 20
79.8623
 30
0.0
 40
0.5
 41
0.5
  0
SEQEND
  8
0
  0
POLYLINE
8
0
 62
     0
 66
     1
 10
0
 20
0
 30
0.0
 40
0.5
 41
0.5
  0
VERTEX
  8
0
 10
222.797
 20
76.3618
 30
0.0
 40
0.5
 41
0.5
  0
VERTEX
  8
0
 10
221.401
 20
78.7786
 30
0.0
 40
0.5
 41
0.5
  0
SEQEND
  8
0
  0
POLYLINE
8
0
 62
     0
 66
     1
 10
0
 20
0
 30
0.0
 40
0.5
 41
0.5
  0
VERTEX
  8
0
 10
222.283
 20
76.0649
 30
0.0
 40
0.5
 41
0.5
  0
VERTEX
  8
0
 10
220.887
 20
78.4819
 30
0.0
 40
0.5
 41
0.5
  0
SEQEND
  8
0
  0
POLYLINE
8
0
 62
     0
 66
     1
 10
0
 20
0
 30
0.0
 40
0.5
 41
0.5
  0
VERTEX
  8
0
 10
258.526
 20
89.0591
 30
0.0
 40
0.5
 41
0.5
  0
VERTEX
  8
0
 10
258.526
 20
86.2686
 30
0.0
 40
0.5
 41
0.5
  0
SEQEND
  8
0
  0
POLYLINE
8
0
 62
     0
 66
     1
 10
0
 20
0
 30
0.0
 40
0.5
 41
0.5
  0
VERTEX
  8
0
 10
259.119
 20
89.0591
 30
0.0
 40
0.5
 41
0.5
  0
VERTEX
  8
0
 10
259.119
 20
86.2686
 30
0.0
 40
0.5
 41
0.5
  0
SEQEND
  8
0
  0
POLYLINE
8
0
 62
     0
 66
     1
 10
0
 20
0
 30
0.0
 40
0.5
 41
0.5
  0
VERTEX
  8
0
 10
255.123
 20
87.999
 30
0.0
 40
0.5
 41
0.5
  0
VERTEX
  8
0
 10
256.519
 20
85.5825
 30
0.0
 40
0.5
 41
0.5
  0
SEQEND
  8
0
  0
POLYLINE
8
0
 62
     0
 66
     1
 10
0
 20
0
 30
0.0
 40
0.5
 41
0.5
  0
VERTEX
  8
0
 10
255.637
 20
88.2959
 30
0.0
 40
0.5
 41
0.5
  0
VERTEX
  8
0
 10
257.033
 20
85.8792
 30
0.0
 40
0.5
 41
0.5
  0
SEQEND
  8
0
  0
POLYLINE
8
0
 62
     0
 66
     1
 10
0
 20
0
 30
0.0
 40
0.5
 41
0.5
  0
VERTEX
  8
0
 10
252.707
 20
85.3801
 30
0.0
 40
0.5
 41
0.5
  0
VERTEX
  8
0
 10
255.124
 20
83.9846
 30
0.0
 40
0.5
 41
0.5
  0
SEQEND
  8
0
  0
POLYLINE
8
0
 62
     0
 66
     1
 10
0
 20
0
 30
0.0
 40
0.5
 41
0.5
  0
VERTEX
  8
0
 10
253.004
 20
85.894
 30
0.0
 40
0.5
 41
0.5
  0
VERTEX
  8
0
 10
255.42
 20
84.4988
 30
0.0
 40
0.5
 41
0.5
  0
SEQEND
  8
0
  0
POLYLINE
8
0
 62
     0
 66
     1
 10
0
 20
0
 30
0.0
 40
0.5
 41
0.5
  0
VERTEX
  8
0
 10
251.924
 20
81.9036
 30
0.0
 40
0.5
 41
0.5
  0
VERTEX
  8
0
 10
254.714
 20
81.9036
 30
0.0
 40
0.5
 41
0.5
  0
SEQEND
  8
0
  0
POLYLINE
8
0
 62
     0
 66
     1
 10
0
 20
0
 30
0.0
 40
0.5
 41
0.5
  0
VERTEX
  8
0
 10
251.924
 20
82.4973
 30
0.0
 40
0.5
 41
0.5
  0
VERTEX
  8
0
 10
254.714
 20
82.4973
 30
0.0
 40
0.5
 41
0.5
  0
SEQEND
  8
0
  0
POLYLINE
8
0
 62
     0
 66
     1
 10
0
 20
0
 30
0.0
 40
0.5
 41
0.5
  0
VERTEX
  8
0
 10
252.984
 20
78.5012
 30
0.0
 40
0.5
 41
0.5
  0
VERTEX
  8
0
 10
255.401
 20
79.8967
 30
0.0
 40
0.5
 41
0.5
  0
SEQEND
  8
0
  0
POLYLINE
8
0
 62
     0
 66
     1
 10
0
 20
0
 30
0.0
 40
0.5
 41
0.5
  0
VERTEX
  8
0
 10
252.687
 20
79.0154
 30
0.0
 40
0.5
 41
0.5
  0
VERTEX
  8
0
 10
255.104
 20
80.4106
 30
0.0
 40
0.5
 41
0.5
  0
SEQEND
  8
0
  0
POLYLINE
8
0
 62
     0
 66
     1
 10
0
 20
0
 30
0.0
 40
0.5
 41
0.5
  0
VERTEX
  8
0
 10
255.603
 20
76.085
 30
0.0
 40
0.5
 41
0.5
  0
VERTEX
  8
0
 10
256.998
 20
78.5017
 30
0.0
 40
0.5
 41
0.5
  0
SEQEND
  8
0
  0
POLYLINE
8
0
 62
     0
 66
     1
 10
0
 20
0
 30
0.0
 40
0.5
 41
0.5
  0
VERTEX
  8
0
 10
255.089
 20
76.3818
 30
0.0
 40
0.5
 41
0.5
  0
VERTEX
  8
0
 10
256.484
 20
78.7983
 30
0.0
 40
0.5
 41
0.5
  0
SEQEND
  8
0
  0
POLYLINE
8
0
 62
     0
 66
     1
 10
0
 20
0
 30
0.0
 40
0.5
 41
0.5
  0
VERTEX
  8
0
 10
262.002
 20
88.2761
 30
0.0
 40
0.5
 41
0.5
  0
VERTEX
  8
0
 10
260.607
 20
85.8591
 30
0.0
 40
0.5
 41
0.5
  0
SEQEND
  8
0
  0
POLYLINE
8
0
 62
     0
 66
     1
 10
0
 20
0
 30
0.0
 40
0.5
 41
0.5
  0
VERTEX
  8
0
 10
262.516
 20
87.9792
 30
0.0
 40
0.5
 41
0.5
  0
VERTEX
  8
0
 10
261.121
 20
85.5625
 30
0.0
 40
0.5
 41
0.5
  0
SEQEND
  8
0
  0
POLYLINE
8
0
 62
     0
 66
     1
 10
0
 20
0
 30
0.0
 40
0.5
 41
0.5
  0
VERTEX
  8
0
 10
264.621
 20
85.8596
 30
0.0
 40
0.5
 41
0.5
  0
VERTEX
  8
0
 10
262.204
 20
84.4644
 30
0.0
 40
0.5
 41
0.5
  0
SEQEND
  8
0
  0
POLYLINE
8
0
 62
     0
 66
     1
 10
0
 20
0
 30
0.0
 40
0.5
 41
0.5
  0
VERTEX
  8
0
 10
264.918
 20
85.3457
 30
0.0
 40
0.5
 41
0.5
  0
VERTEX
  8
0
 10
262.501
 20
83.9502
 30
0.0
 40
0.5
 41
0.5
  0
SEQEND
  8
0
  0
POLYLINE
8
0
 62
     0
 66
     1
 10
0
 20
0
 30
0.0
 40
0.5
 41
0.5
  0
VERTEX
  8
0
 10
265.681
 20
82.4573
 30
0.0
 40
0.5
 41
0.5
  0
VERTEX
  8
0
 10
262.89
 20
82.4573
 30
0.0
 40
0.5
 41
0.5
  0
SEQEND
  8
0
  0
POLYLINE
8
0
 62
     0
 66
     1
 10
0
 20
0
 30
0.0
 40
0.5
 41
0.5
  0
VERTEX
  8
0
 10
265.681
 20
81.8638
 30
0.0
 40
0.5
 41
0.5
  0
VERTEX
  8
0
 10
262.89
 20
81.8638
 30
0.0
 40
0.5
 41
0.5
  0
SEQEND
  8
0
  0
POLYLINE
8
0
 62
     0
 66
     1
 10
0
 20
0
 30
0.0
 40
0.5
 41
0.5
  0
VERTEX
  8
0
 10
264.898
 20
78.981
 30
0.0
 40
0.5
 41
0.5
  0
VERTEX
  8
0
 10
262.481
 20
80.3762
 30
0.0
 40
0.5
 41
0.5
  0
SEQEND
  8
0
  0
POLYLINE
8
0
 62
     0
 66
     1
 10
0
 20
0
 30
0.0
 40
0.5
 41
0.5
  0
VERTEX
  8
0
 10
264.601
 20
78.467
 30
0.0
 40
0.5
 41
0.5
  0
VERTEX
  8
0
 10
262.184
 20
79.8623
 30
0.0
 40
0.5
 41
0.5
  0
SEQEND
  8
0
  0
POLYLINE
8
0
 62
     0
 66
     1
 10
0
 20
0
 30
0.0
 40
0.5
 41
0.5
  0
VERTEX
  8
0
 10
262.482
 20
76.3618
 30
0.0
 40
0.5
 41
0.5
  0
VERTEX
  8
0
 10
261.086
 20
78.7786
 30
0.0
 40
0.5
 41
0.5
  0
SEQEND
  8
0
  0
POLYLINE
8
0
 62
     0
 66
     1
 10
0
 20
0
 30
0.0
 40
0.5
 41
0.5
  0
VERTEX
  8
0
 10
261.968
 20
76.0649
 30
0.0
 40
0.5
 41
0.5
  0
VERTEX
  8
0
 10
260.572
 20
78.4819
 30
0.0
 40
0.5
 41
0.5
  0
SEQEND
  8
0
  0
POLYLINE
8
0
 62
     0
 66
     1
 10
0
 20
0
 30
0.0
 40
0.5
 41
0.5
  0
VERTEX
  8
0
 10
298.211
 20
89.0591
 30
0.0
 40
0.5
 41
0.5
  0
VERTEX
  8
0
 10
298.211
 20
86.2686
 30
0.0
 40
0.5
 41
0.5
  0
SEQEND
  8
0
  0
POLYLINE
8
0
 62
     0
 66
     1
 10
0
 20
0
 30
0.0
 40
0.5
 41
0.5
  0
VERTEX
  8
0
 10
298.804
 20
89.0591
 30
0.0
 40
0.5
 41
0.5
  0
VERTEX
  8
0
 10
298.804
 20
86.2686
 30
0.0
 40
0.5
 41
0.5
  0
SEQEND
  8
0
  0
POLYLINE
8
0
 62
     0
 66
     1
 10
0
 20
0
 30
0.0
 40
0.5
 41
0.5
  0
VERTEX
  8
0
 10
294.808
 20
87.999
 30
0.0
 40
0.5
 41
0.5
  0
VERTEX
  8
0
 10
296.204
 20
85.5825
 30
0.0
 40
0.5
 41
0.5
  0
SEQEND
  8
0
  0
POLYLINE
8
0
 62
     0
 66
     1
 10
0
 20
0
 30
0.0
 40
0.5
 41
0.5
  0
VERTEX
  8
0
 10
295.323
 20
88.2959
 30
0.0
 40
0.5
 41
0.5
  0
VERTEX
  8
0
 10
296.718
 20
85.8792
 30
0.0
 40
0.5
 41
0.5
  0
SEQEND
  8
0
  0
POLYLINE
8
0
 62
     0
 66
     1
 10
0
 20
0
 30
0.0
 40
0.5
 41
0.5
  0
VERTEX
  8
0
 10
292.392
 20
85.3801
 30
0.0
 40
0.5
 41
0.5
  0
VERTEX
  8
0
 10
294.809
 20
83.9846
 30
0.0
 40
0.5
 41
0.5
  0
SEQEND
  8
0
  0
POLYLINE
8
0
 62
     0
 66
     1
 10
0
 20
0
 30
0.0
 40
0.5
 41
0.5
  0
VERTEX
  8
0
 10
292.689
 20
85.894
 30
0.0
 40
0.5
 41
0.5
  0
VERTEX
  8
0
 10
295.105
 20
84.4988
 30
0.0
 40
0.5
 41
0.5
  0
SEQEND
  8
0
  0
POLYLINE
8
0
 62
     0
 66
     1
 10
0
 20
0
 30
0.0
 40
0.5
 41
0.5
  0
VERTEX
  8
0
 10
291.609
 20
81.9036
 30
0.0
 40
0.5
 41
0.5
  0
VERTEX
  8
0
 10
294.399
 20
81.9036
 30
0.0
 40
0.5
 41
0.5
  0
SEQEND
  8
0
  0
POLYLINE
8
0
 62
     0
 66
     1
 10
0
 20
0
 30
0.0
 40
0.5
 41
0.5
  0
VERTEX
  8
0
 10
291.609
 20
82.4973
 30
0.0
 40
0.5
 41
0.5
  0
VERTEX
  8
0
 10
294.399
 20
82.4973
 30
0.0
 40
0.5
 41
0.5
  0
SEQEND
  8
0
  0
POLYLINE
8
0
 62
     0
 66
     1
 10
0
 20
0
 30
0.0
 40
0.5
 41
0.5
  0
VERTEX
  8
0
 10
292.669
 20
78.5012
 30
0.0
 40
0.5
 41
0.5
  0
VERTEX
  8
0
 10
295.086
 20
79.8967
 30
0.0
 40
0.5
 41
0.5
  0
SEQEND
  8
0
  0
POLYLINE
8
0
 62
     0
 66
     1
 10
0
 20
0
 30
0.0
 40
0.5
 41
0.5
  0
VERTEX
  8
0
 10
292.372
 20
79.0154
 30
0.0
 40
0.5
 41
0.5
  0
VERTEX
  8
0
 10
294.789
 20
80.4106
 30
0.0
 40
0.5
 41
0.5
  0
SEQEND
  8
0
  0
POLYLINE
8
0
 62
     0
 66
     1
 10
0
 20
0
 30
0.0
 40
0.5
 41
0.5
  0
VERTEX
  8
0
 10
295.288
 20
76.085
 30
0.0
 40
0.5
 41
0.5
  0
VERTEX
  8
0
 10
296.683
 20
78.5017
 30
0.0
 40
0.5
 41
0.5
  0
SEQEND
  8
0
  0
POLYLINE
8
0
 62
     0
 66
     1
 10
0
 20
0
 30
0.0
 40
0.5
 41
0.5
  0
VERTEX
  8
0
 10
294.774
 20
76.3818
 30
0.0
 40
0.5
 41
0.5
  0
VERTEX
  8
0
 10
296.169
 20
78.7983
 30
0.0
 40
0.5
 41
0.5
  0
SEQEND
  8
0
  0
POLYLINE
8
0
 62
     0
 66
     1
 10
0
 20
0
 30
0.0
 40
0.5
 41
0.5
  0
VERTEX
  8
0
 10
301.687
 20
88.2761
 30
0.0
 40
0.5
 41
0.5
  0
VERTEX
  8
0
 10
300.292
 20
85.8591
 30
0.0
 40
0.5
 41
0.5
  0
SEQEND
  8
0
  0
POLYLINE
8
0
 62
     0
 66
     1
 10
0
 20
0
 30
0.0
 40
0.5
 41
0.5
  0
VERTEX
  8
0
 10
302.201
 20
87.9792
 30
0.0
 40
0.5
 41
0.5
  0
VERTEX
  8
0
 10
300.806
 20
85.5625
 30
0.0
 40
0.5
 41
0.5
  0
SEQEND
  8
0
  0
POLYLINE
8
0
 62
     0
 66
     1
 10
0
 20
0
 30
0.0
 40
0.5
 41
0.5
  0
VERTEX
  8
0
 10
304.306
 20
85.8596
 30
0.0
 40
0.5
 41
0.5
  0
VERTEX
  8
0
 10
301.889
 20
84.4644
 30
0.0
 40
0.5
 41
0.5
  0
SEQEND
  8
0
  0
POLYLINE
8
0
 62
     0
 66
     1
 10
0
 20
0
 30
0.0
 40
0.5
 41
0.5
  0
VERTEX
  8
0
 10
304.603
 20
85.3457
 30
0.0
 40
0.5
 41
0.5
  0
VERTEX
  8
0
 10
302.186
 20
83.9502
 30
0.0
 40
0.5
 41
0.5
  0
SEQEND
  8
0
  0
POLYLINE
8
0
 62
     0
 66
     1
 10
0
 20
0
 30
0.0
 40
0.5
 41
0.5
  0
VERTEX
  8
0
 10
305.366
 20
82.4573
 30
0.0
 40
0.5
 41
0.5
  0
VERTEX
  8
0
 10
302.575
 20
82.4573
 30
0.0
 40
0.5
 41
0.5
  0
SEQEND
  8
0
  0
POLYLINE
8
0
 62
     0
 66
     1
 10
0
 20
0
 30
0.0
 40
0.5
 41
0.5
  0
VERTEX
  8
0
 10
305.366
 20
81.8638
 30
0.0
 40
0.5
 41
0.5
  0
VERTEX
  8
0
 10
302.575
 20
81.8638
 30
0.0
 40
0.5
 41
0.5
  0
SEQEND
  8
0
  0
POLYLINE
8
0
 62
     0
 66
     1
 10
0
 20
0
 30
0.0
 40
0.5
 41
0.5
  0
VERTEX
  8
0
 10
304.583
 20
78.981
 30
0.0
 40
0.5
 41
0.5
  0
VERTEX
  8
0
 10
302.166
 20
80.3762
 30
0.0
 40
0.5
 41
0.5
  0
SEQEND
  8
0
  0
POLYLINE
8
0
 62
     0
 66
     1
 10
0
 20
0
 30
0.0
 40
0.5
 41
0.5
  0
VERTEX
  8
0
 10
304.286
 20
78.467
 30
0.0
 40
0.5
 41
0.5
  0
VERTEX
  8
0
 10
301.869
 20
79.8623
 30
0.0
 40
0.5
 41
0.5
  0
SEQEND
  8
0
  0
POLYLINE
8
0
 62
     0
 66
     1
 10
0
 20
0
 30
0.0
 40
0.5
 41
0.5
  0
VERTEX
  8
0
 10
302.167
 20
76.3618
 30
0.0
 40
0.5
 41
0.5
  0
VERTEX
  8
0
 10
300.771
 20
78.7786
 30
0.0
 40
0.5
 41
0.5
  0
SEQEND
  8
0
  0
POLYLINE
8
0
 62
     0
 66
     1
 10
0
 20
0
 30
0.0
 40
0.5
 41
0.5
  0
VERTEX
  8
0
 10
301.653
 20
76.0649
 30
0.0
 40
0.5
 41
0.5
  0
VERTEX
  8
0
 10
300.257
 20
78.4819
 30
0.0
 40
0.5
 41
0.5
  0
SEQEND
  8
0
  0
POLYLINE
8
0
 62
     0
 66
     1
 10
0
 20
0
 30
0.0
 70
     1
 40
0.5
 41
0.5
  0
VERTEX
  8
0
 10
63.926
 20
123.993
 30
0.0
 40
0.5
 41
0.5
  0
VERTEX
  8
0
 10
365.816
 20
123.993
 30
0.0
 40
0.5
 41
0.5
  0
VERTEX
  8
0
 10
365.816
 20
61.6311
 30
0.0
 40
0.5
 41
0.5
  0
VERTEX
  8
0
 10
63.926
 20
61.6311
 30
0.0
 40
0.5
 41
0.5
  0
VERTEX
  8
0
 10
63.926
 20
123.993
 30
0.0
 40
0.5
 41
0.5
  0
SEQEND
  8
0
  0
POLYLINE
8
0
 62
     0
 66
     1
 10
0
 20
0
 30
0.0
 70
     1
 40
0.5
 41
0.5
  0
VERTEX
  8
0
 10
707.393
 20
61.6318
 30
0.0
 40
0.5
 41
0.5
  0
VERTEX
  8
0
 10
367.236
 20
61.6318
 30
0.0
 40
0.5
 41
0.5
  0
VERTEX
  8
0
 10
367.236
 20
123.994
 30
0.0
 40
0.5
 41
0.5
  0
VERTEX
  8
0
 10
707.393
 20
123.994
 30
0.0
 40
0.5
 41
0.5
  0
VERTEX
  8
0
 10
707.393
 20
61.6318
 30
0.0
 40
0.5
 41
0.5
  0
SEQEND
  8
0
  0
POLYLINE
8
0
 62
     0
 66
     1
 10
0
 20
0
 30
0.0
 70
     1
 40
0.5
 41
0.5
  0
VERTEX
  8
0
 10
692.85
 20
65.3879
 30
0.0
 40
0.5
 41
0.5
  0
VERTEX
  8
0
 10
691.059
 20
65.75
 30
0.0
 40
0.5
 41
0.5
  0
VERTEX
  8
0
 10
689.6
 20
66.7371
 30
0.0
 40
0.5
 41
0.5
  0
VERTEX
  8
0
 10
688.618
 20
68.2012
 30
0.0
 40
0.5
 41
0.5
  0
VERTEX
  8
0
 10
688.259
 20
69.9941
 30
0.0
 40
0.5
 41
0.5
  0
VERTEX
  8
0
 10
688.621
 20
71.7871
 30
0.0
 40
0.5
 41
0.5
  0
VERTEX
  8
0
 10
689.608
 20
73.2512
 30
0.0
 40
0.5
 41
0.5
  0
VERTEX
  8
0
 10
691.072
 20
74.2385
 30
0.0
 40
0.5
 41
0.5
  0
VERTEX
  8
0
 10
692.865
 20
74.6003
 30
0.0
 40
0.5
 41
0.5
  0
VERTEX
  8
0
 10
699.236
 20
74.6003
 30
0.0
 40
0.5
 41
0.5
  0
VERTEX
  8
0
 10
701.03
 20
74.2385
 30
0.0
 40
0.5
 41
0.5
  0
VERTEX
  8
0
 10
702.497
 20
73.2512
 30
0.0
 40
0.5
 41
0.5
  0
VERTEX
  8
0
 10
703.486
 20
71.7871
 30
0.0
 40
0.5
 41
0.5
  0
VERTEX
  8
0
 10
703.85
 20
69.9941
 30
0.0
 40
0.5
 41
0.5
  0
VERTEX
  8
0
 10
703.488
 20
68.2012
 30
0.0
 40
0.5
 41
0.5
  0
VERTEX
  8
0
 10
702.5
 20
66.7371
 30
0.0
 40
0.5
 41
0.5
  0
VERTEX
  8
0
 10
701.036
 20
65.75
 30
0.0
 40
0.5
 41
0.5
  0
VERTEX
  8
0
 10
699.243
 20
65.3879
 30
0.0
 40
0.5
 41
0.5
  0
VERTEX
  8
0
 10
692.85
 20
65.3879
 30
0.0
 40
0.5
 41
0.5
  0
SEQEND
  8
0
  0
POLYLINE
8
0
 62
     0
 66
     1
 10
0
 20
0
 30
0.0
 70
     1
 40
0.5
 41
0.5
  0
VERTEX
  8
0
 10
692.85
 20
111.026
 30
0.0
 40
0.5
 41
0.5
  0
VERTEX
  8
0
 10
691.059
 20
111.388
 30
0.0
 40
0.5
 41
0.5
  0
VERTEX
  8
0
 10
689.6
 20
112.375
 30
0.0
 40
0.5
 41
0.5
  0
VERTEX
  8
0
 10
688.618
 20
113.839
 30
0.0
 40
0.5
 41
0.5
  0
VERTEX
  8
0
 10
688.259
 20
115.632
 30
0.0
 40
0.5
 41
0.5
  0
VERTEX
  8
0
 10
688.621
 20
117.425
 30
0.0
 40
0.5
 41
0.5
  0
VERTEX
  8
0
 10
689.608
 20
118.889
 30
0.0
 40
0.5
 41
0.5
  0
VERTEX
  8
0
 10
691.072
 20
119.876
 30
0.0
 40
0.5
 41
0.5
  0
VERTEX
  8
0
 10
692.865
 20
120.238
 30
0.0
 40
0.5
 41
0.5
  0
VERTEX
  8
0
 10
699.236
 20
120.238
 30
0.0
 40
0.5
 41
0.5
  0
VERTEX
  8
0
 10
701.03
 20
119.876
 30
0.0
 40
0.5
 41
0.5
  0
VERTEX
  8
0
 10
702.497
 20
118.889
 30
0.0
 40
0.5
 41
0.5
  0
VERTEX
  8
0
 10
703.486
 20
117.425
 30
0.0
 40
0.5
 41
0.5
  0
VERTEX
  8
0
 10
703.85
 20
115.632
 30
0.0
 40
0.5
 41
0.5
  0
VERTEX
  8
0
 10
703.488
 20
113.839
 30
0.0
 40
0.5
 41
0.5
  0
VERTEX
  8
0
 10
702.5
 20
112.375
 30
0.0
 40
0.5
 41
0.5
  0
VERTEX
  8
0
 10
701.036
 20
111.388
 30
0.0
 40
0.5
 41
0.5
  0
VERTEX
  8
0
 10
699.243
 20
111.026
 30
0.0
 40
0.5
 41
0.5
  0
VERTEX
  8
0
 10
692.85
 20
111.026
 30
0.0
 40
0.5
 41
0.5
  0
SEQEND
  8
0
  0
POLYLINE
8
0
 62
     0
 66
     1
 10
0
 20
0
 30
0.0
 70
     1
 40
0.5
 41
0.5
  0
VERTEX
  8
0
 10
27.0779
 20
123.992
 30
0.0
 40
0.5
 41
0.5
  0
VERTEX
  8
0
 10
62.511
 20
123.992
 30
0.0
 40
0.5
 41
0.5
  0
VERTEX
  8
0
 10
62.511
 20
61.6296
 30
0.0
 40
0.5
 41
0.5
  0
VERTEX
  8
0
 10
27.0779
 20
61.6296
 30
0.0
 40
0.5
 41
0.5
  0
VERTEX
  8
0
 10
27.0779
 20
123.992
 30
0.0
 40
0.5
 41
0.5
  0
SEQEND
  8
0
  0
POLYLINE
8
0
 62
     0
 66
     1
 10
0
 20
0
 30
0.0
 70
     1
 40
0.5
 41
0.5
  0
VERTEX
  8
0
 10
41.6211
 20
120.236
 30
0.0
 40
0.5
 41
0.5
  0
VERTEX
  8
0
 10
43.4116
 20
119.874
 30
0.0
 40
0.5
 41
0.5
  0
VERTEX
  8
0
 10
44.8704
 20
118.887
 30
0.0
 40
0.5
 41
0.5
  0
VERTEX
  8
0
 10
45.8523
 20
117.423
 30
0.0
 40
0.5
 41
0.5
  0
VERTEX
  8
0
 10
46.2119
 20
115.63
 30
0.0
 40
0.5
 41
0.5
  0
VERTEX
  8
0
 10
45.8499
 20
113.837
 30
0.0
 40
0.5
 41
0.5
  0
VERTEX
  8
0
 10
44.8625
 20
112.373
 30
0.0
 40
0.5
 41
0.5
  0
VERTEX
  8
0
 10
43.3984
 20
111.385
 30
0.0
 40
0.5
 41
0.5
  0
VERTEX
  8
0
 10
41.6055
 20
111.023
 30
0.0
 40
0.5
 41
0.5
  0
VERTEX
  8
0
 10
35.2354
 20
111.023
 30
0.0
 40
0.5
 41
0.5
  0
VERTEX
  8
0
 10
33.4412
 20
111.385
 30
0.0
 40
0.5
 41
0.5
  0
VERTEX
  8
0
 10
31.9744
 20
112.373
 30
0.0
 40
0.5
 41
0.5
  0
VERTEX
  8
0
 10
30.9844
 20
113.837
 30
0.0
 40
0.5
 41
0.5
  0
VERTEX
  8
0
 10
30.6213
 20
115.63
 30
0.0
 40
0.5
 41
0.5
  0
VERTEX
  8
0
 10
30.9832
 20
117.423
 30
0.0
 40
0.5
 41
0.5
  0
VERTEX
  8
0
 10
31.9705
 20
118.887
 30
0.0
 40
0.5
 41
0.5
  0
VERTEX
  8
0
 10
33.4346
 20
119.874
 30
0.0
 40
0.5
 41
0.5
  0
VERTEX
  8
0
 10
35.2275
 20
120.236
 30
0.0
 40
0.5
 41
0.5
  0
VERTEX
  8
0
 10
41.6211
 20
120.236
 30
0.0
 40
0.5
 41
0.5
  0
SEQEND
  8
0
  0
POLYLINE
8
0
 62
     0
 66
     1
 10
0
 20
0
 30
0.0
 70
     1
 40
0.5
 41
0.5
  0
VERTEX
  8
0
 10
41.6211
 20
74.5981
 30
0.0
 40
0.5
 41
0.5
  0
VERTEX
  8
0
 10
43.4116
 20
74.2363
 30
0.0
 40
0.5
 41
0.5
  0
VERTEX
  8
0
 10
44.8704
 20
73.249
 30
0.0
 40
0.5
 41
0.5
  0
VERTEX
  8
0
 10
45.8523
 20
71.7849
 30
0.0
 40
0.5
 41
0.5
  0
VERTEX
  8
0
 10
46.2119
 20
69.9919
 30
0.0
 40
0.5
 41
0.5
  0
VERTEX
  8
0
 10
45.8499
 20
68.199
 30
0.0
 40
0.5
 41
0.5
  0
VERTEX
  8
0
 10
44.8625
 20
66.7349
 30
0.0
 40
0.5
 41
0.5
  0
VERTEX
  8
0
 10
43.3984
 20
65.7476
 30
0.0
 40
0.5
 41
0.5
  0
VERTEX
  8
0
 10
41.6055
 20
65.3855
 30
0.0
 40
0.5
 41
0.5
  0
VERTEX
  8
0
 10
35.2354
 20
65.3855
 30
0.0
 40
0.5
 41
0.5
  0
VERTEX
  8
0
 10
33.4412
 20
65.7476
 30
0.0
 40
0.5
 41
0.5
  0
VERTEX
  8
0
 10
31.9744
 20
66.7349
 30
0.0
 40
0.5
 41
0.5
  0
VERTEX
  8
0
 10
30.9844
 20
68.199
 30
0.0
 40
0.5
 41
0.5
  0
VERTEX
  8
0
 10
30.6213
 20
69.9919
 30
0.0
 40
0.5
 41
0.5
  0
VERTEX
  8
0
 10
30.9832
 20
71.7849
 30
0.0
 40
0.5
 41
0.5
  0
VERTEX
  8
0
 10
31.9705
 20
73.249
 30
0.0
 40
0.5
 41
0.5
  0
VERTEX
  8
0
 10
33.4346
 20
74.2363
 30
0.0
 40
0.5
 41
0.5
  0
VERTEX
  8
0
 10
35.2275
 20
74.5981
 30
0.0
 40
0.5
 41
0.5
  0
VERTEX
  8
0
 10
41.6211
 20
74.5981
 30
0.0
 40
0.5
 41
0.5
  0
SEQEND
  8
0
  0
ENDSEC
  0
EOF
